                                                                        S      1
,,5HS75AG,27HNo Iges File Name specified,22HAutodesk Inventor 2012,37HAuG      1
toDesk Inventor Iges Exporter R2012,32,38,6,99,15,5HS75AG,1.0D0,2,2HMM, G      2
1,.08D0,15H20130604.094834,.01D0,10000.0D0,6Haporro,,11,0,,;            G      3
     406       1       0       0       1       0       0       000000000D      1
     406       0       0       1       3                               0D      2
     120       2       0       0       0       0       0       000010000D      3
     120       0       0       1       0                               0D      4
     110       3       0       0       0       0       0       000010000D      5
     110       0       0       2       0                               0D      6
     110       5       0       0       0       0       0       001010000D      7
     110       0       0       2       0                               0D      8
     504       7       0       0       0       0       0       000010001D      9
     504       0       0       2       1                               0D     10
     502       9       0       0       0       0       0       000010000D     11
     502       0       0       8       1                               0D     12
     100      17       0       0       0       0      15       000010000D     13
     100       0       0       2       0                               0D     14
     124      19       0       0       0       0       0       000000000D     15
     124       0       0       3       0                               0D     16
     508      22       0       0       0       0       0       000010000D     17
     508       0       0       1       1                               0D     18
     100      23       0       0       0       0      21       000010000D     19
     100       0       0       2       0                               0D     20
     124      25       0       0       0       0       0       000000000D     21
     124       0       0       3       0                               0D     22
     508      28       0       0       0       0       0       000010000D     23
     508       0       0       1       1                               0D     24
     510      29       0       0       0       0       0       000010000D     25
     510       0    -147       1       1                               0D     26
     120      30       0       0       0       0       0       000010000D     27
     120       0       0       1       0                               0D     28
     100      31       0       0       0       0      31       000010000D     29
     100       0       0       1       0                               0D     30
     124      32       0       0       0       0       0       000000000D     31
     124       0       0       2       0                               0D     32
     110      34       0       0       0       0       0       001010000D     33
     110       0       0       2       0                               0D     34
     508      36       0       0       0       0       0       000010000D     35
     508       0       0       1       1                               0D     36
     100      37       0       0       0       0      39       000010000D     37
     100       0       0       2       0                               0D     38
     124      39       0       0       0       0       0       000000000D     39
     124       0       0       2       0                               0D     40
     508      41       0       0       0       0       0       000010000D     41
     508       0       0       1       1                               0D     42
     510      42       0       0       0       0       0       000010000D     43
     510       0    -147       1       1                               0D     44
     120      43       0       0       0       0       0       000010000D     45
     120       0       0       1       0                               0D     46
     110      44       0       0       0       0       0       000010000D     47
     110       0       0       2       0                               0D     48
     110      46       0       0       0       0       0       001010000D     49
     110       0       0       2       0                               0D     50
     508      48       0       0       0       0       0       000010000D     51
     508       0       0       1       1                               0D     52
     100      49       0       0       0       0      55       000010000D     53
     100       0       0       2       0                               0D     54
     124      51       0       0       0       0       0       000000000D     55
     124       0       0       2       0                               0D     56
     508      53       0       0       0       0       0       000010000D     57
     508       0       0       1       1                               0D     58
     510      54       0       0       0       0       0       000010000D     59
     510       0    -147       1       1                               0D     60
     116      55       0       0       0       0       0       000010000D     61
     116       0       0       1       0                               0D     62
     123      56       0       0       0       0       0       000010200D     63
     123       0       0       1       0                               0D     64
     192      57       0       0       0       0       0       000010000D     65
     192       0       0       1       1                               0D     66
     123      58       0       0       0       0       0       000010200D     67
     123       0       0       1       0                               0D     68
     100      59       0       0       0       0      71       000010000D     69
     100       0       0       2       0                               0D     70
     124      61       0       0       0       0       0       000000000D     71
     124       0       0       3       0                               0D     72
     508      64       0       0       0       0       0       000010000D     73
     508       0       0       1       1                               0D     74
     100      65       0       0       0       0      21       000010000D     75
     100       0       0       2       0                               0D     76
     508      67       0       0       0       0       0       000010000D     77
     508       0       0       1       1                               0D     78
     510      68       0       0       0       0       0       000010000D     79
     510       0    -147       1       1                               0D     80
     116      69       0       0       0       0       0       000010000D     81
     116       0       0       1       0                               0D     82
     123      70       0       0       0       0       0       000010200D     83
     123       0       0       1       0                               0D     84
     198      71       0       0       0       0       0       000010000D     85
     198       0       0       1       1                               0D     86
     123      72       0       0       0       0       0       000010200D     87
     123       0       0       1       0                               0D     88
     508      73       0       0       0       0       0       000010000D     89
     508       0       0       1       1                               0D     90
     100      74       0       0       0       0      39       000010000D     91
     100       0       0       2       0                               0D     92
     508      76       0       0       0       0       0       000010000D     93
     508       0       0       1       1                               0D     94
     510      77       0       0       0       0       0       000010000D     95
     510       0    -147       1       1                               0D     96
     116      78       0       0       0       0       0       000010000D     97
     116       0       0       1       0                               0D     98
     123      79       0       0       0       0       0       000010200D     99
     123       0       0       1       0                               0D    100
     192      80       0       0       0       0       0       000010000D    101
     192       0       0       1       1                               0D    102
     123      81       0       0       0       0       0       000010200D    103
     123       0       0       1       0                               0D    104
     508      82       0       0       0       0       0       000010000D    105
     508       0       0       1       1                               0D    106
     100      83       0       0       0       0     109       000010000D    107
     100       0       0       2       0                               0D    108
     124      85       0       0       0       0       0       000000000D    109
     124       0       0       2       0                               0D    110
     508      87       0       0       0       0       0       000010000D    111
     508       0       0       1       1                               0D    112
     510      88       0       0       0       0       0       000010000D    113
     510       0    -147       1       1                               0D    114
     116      89       0       0       0       0       0       000010000D    115
     116       0       0       1       0                               0D    116
     123      90       0       0       0       0       0       000010200D    117
     123       0       0       1       0                               0D    118
     190      91       0       0       0       0       0       000010000D    119
     190       0       0       1       1                               0D    120
     123      92       0       0       0       0       0       000010200D    121
     123       0       0       1       0                               0D    122
     508      93       0       0       0       0       0       000010000D    123
     508       0       0       1       1                               0D    124
     508      94       0       0       0       0       0       000010000D    125
     508       0       0       1       1                               0D    126
     510      95       0       0       0       0       0       000010000D    127
     510       0    -147       1       1                               0D    128
     116      96       0       0       0       0       0       000010000D    129
     116       0       0       1       0                               0D    130
     123      97       0       0       0       0       0       000010200D    131
     123       0       0       1       0                               0D    132
     190      98       0       0       0       0       0       000010000D    133
     190       0       0       1       1                               0D    134
     123      99       0       0       0       0       0       000010200D    135
     123       0       0       1       0                               0D    136
     508     100       0       0       0       0       0       000010000D    137
     508       0       0       1       1                               0D    138
     508     101       0       0       0       0       0       000010000D    139
     508       0       0       1       1                               0D    140
     510     102       0       0       0       0       0       000010000D    141
     510       0    -147       1       1                               0D    142
     514     103       0       0       0       0       0       000010000D    143
     514       0       0       1       1                               0D    144
     186     104       0       0       1       0       0       000000000D    145
     186       0       0       1       0                 Solido1       0D    146
     314     105       0       0       0       0       0       000000000D    147
     314       0       8       1       0                               0D    148
406,2,0,5HS75AG;                                                       1P      1
120,7,5,0.0D0,6.28318530717959D0;                                      3P      2
110,-16.5844798302171D0,0.0D0,234.074868460971D0,                      5P      3
-32.2119327877797D0,0.0D0,292.397316891487D0;                          5P      4
110,-1.12966660959199D0,0.0D0,238.215973182612D0,                      7P      5
-1.38848565469451D0,0.0D0,239.181899008901D0;                          7P      6
504,8,13,11,1,11,1,19,11,2,11,2,37,11,3,11,3,53,11,4,11,4,69,11,       9P      7
5,11,5,75,11,6,11,6,91,11,7,11,7,107,11,8,11,8;                        9P      8
502,8,-.591967575731189D0,1.95943487863577D-15,                       11P      9
298.028505951563D0,13.6148078402348D0,1.95943487863577D-15,           11P     10
245.008098287457D0,16.0D0,1.95943487863577D-15,                       11P     11
226.890765130281D0,16.0D0,1.95943487863577D-15,0.0D0,                 11P     12
.856921163702415D0,2.14313189850787D-15,298.416734519216D0,           11P     13
15.0636965796684D0,2.14313189850787D-15,245.396326855111D0,           11P     14
17.5D0,2.14313189850787D-15,226.890765130281D0,17.5D0,                11P     15
2.14313189850787D-15,0.0D0;                                           11P     16
100,0.0D0,0.0D0,0.0D0,-16.0D0,1.95943487863577D-15,-16.0D0,           13P     17
1.95943487863577D-15;                                                 13P     18
124,-.965925826289068D0,0.0D0,.258819045102521D0,                     15P     19
-16.0467807963563D0,0.0D0,1.0D0,0.0D0,0.0D0,-.258819045102521D0,      15P     20
0.0D0,-.965925826289068D0,293.887401229922D0;                         15P     21
508,1,0,9,1,0,0;                                                      17P     22
100,0.0D0,0.0D0,0.0D0,-16.0D0,1.95943487863577D-15,-16.0D0,           19P     23
1.95943487863577D-15;                                                 19P     24
124,-.965925826289068D0,0.0D0,.25881904510252D0,                      21P     25
-1.8400053803903D0,0.0D0,1.0D0,0.0D0,0.0D0,-.25881904510252D0,        21P     26
0.0D0,-.965925826289068D0,240.866993565817D0;                         21P     27
508,1,0,9,2,1,0;                                                      23P     28
510,3,2,1,17,23;                                                      25P     29
120,33,29,0.0D0,6.28318530717959D0;                                   27P     30
100,0.0D0,0.0D0,0.0D0,16.0D0,0.0D0,16.0D0,0.0D0;                      29P     31
124,0.0D0,0.0D0,1.0D0,-54.0D0,0.0D0,1.0D0,0.0D0,                      31P     32
-9.79717439317883D-16,-1.0D0,0.0D0,0.0D0,172.890765130281D0;          31P     33
110,-54.0D0,0.0D0,226.890765130281D0,-54.0D0,1.0D0,                   33P     34
226.890765130281D0;                                                   33P     35
508,1,0,9,2,0,0;                                                      35P     36
100,0.0D0,0.0D0,0.0D0,-16.0D0,1.95943487863577D-15,-16.0D0,           37P     37
1.95943487863577D-15;                                                 37P     38
124,-1.0D0,0.0D0,0.0D0,-8.17473539090395D-15,0.0D0,1.0D0,0.0D0,       39P     39
0.0D0,0.0D0,0.0D0,-1.0D0,226.890765130281D0;                          39P     40
508,1,0,9,3,1,0;                                                      41P     41
510,27,2,1,35,41;                                                     43P     42
120,49,47,0.0D0,6.28318530717959D0;                                   45P     43
110,-16.0D0,0.0D0,-11.344538256514D0,-16.0D0,0.0D0,                   47P     44
238.235303386795D0;                                                   47P     45
110,0.0D0,0.0D0,-11.344538256514D0,0.0D0,0.0D0,                       49P     46
-10.344538256514D0;                                                   49P     47
508,1,0,9,3,0,0;                                                      51P     48
100,0.0D0,0.0D0,0.0D0,-16.0D0,1.95943487863577D-15,-16.0D0,           53P     49
1.95943487863577D-15;                                                 53P     50
124,-1.0D0,0.0D0,0.0D0,0.0D0,0.0D0,-1.0D0,0.0D0,0.0D0,0.0D0,          55P     51
0.0D0,1.0D0,0.0D0;                                                    55P     52
508,1,0,9,4,0,0;                                                      57P     53
510,45,2,1,51,57;                                                     59P     54
116,-1.8400053803903D0,0.0D0,240.866993565817D0,0;                    61P     55
123,-.258819045102521D0,0.0D0,.965925826289068D0;                     63P     56
192,61,63,17.5D0,67;                                                  65P     57
123,-.965925826289068D0,0.0D0,-.258819045102521D0;                    67P     58
100,0.0D0,0.0D0,0.0D0,-17.5D0,2.14313189850787D-15,-17.5D0,           69P     59
2.14313189850787D-15;                                                 69P     60
124,-.965925826289068D0,0.0D0,.25881904510252D0,                      71P     61
-16.0467807963563D0,0.0D0,1.0D0,0.0D0,0.0D0,-.25881904510252D0,       71P     62
0.0D0,-.965925826289068D0,293.887401229922D0;                         71P     63
508,1,0,9,5,1,0;                                                      73P     64
100,0.0D0,0.0D0,0.0D0,-17.5D0,2.14313189850787D-15,-17.5D0,           75P     65
2.14313189850787D-15;                                                 75P     66
508,1,0,9,6,0,0;                                                      77P     67
510,65,2,1,73,77;                                                     79P     68
116,-54.0D0,0.0D0,226.890765130281D0,0;                               81P     69
123,0.0D0,-1.0D0,0.0D0;                                               83P     70
198,81,83,54.0D0,17.5D0,87;                                           85P     71
123,0.0D0,0.0D0,-1.0D0;                                               87P     72
508,1,0,9,6,1,0;                                                      89P     73
100,0.0D0,0.0D0,0.0D0,-17.5D0,2.14313189850787D-15,-17.5D0,           91P     74
2.14313189850787D-15;                                                 91P     75
508,1,0,9,7,0,0;                                                      93P     76
510,85,2,1,89,93;                                                     95P     77
116,0.0D0,0.0D0,0.0D0,0;                                              97P     78
123,-3.6029387913651D-17,0.0D0,1.0D0;                                 99P     79
192,97,99,17.5D0,103;                                                101P     80
123,-1.0D0,0.0D0,0.0D0;                                              103P     81
508,1,0,9,7,1,0;                                                     105P     82
100,0.0D0,0.0D0,0.0D0,-17.5D0,2.14313189850787D-15,-17.5D0,          107P     83
2.14313189850787D-15;                                                107P     84
124,-1.0D0,0.0D0,0.0D0,0.0D0,0.0D0,1.0D0,0.0D0,0.0D0,0.0D0,          109P     85
0.0D0,-1.0D0,0.0D0;                                                  109P     86
508,1,0,9,8,0,0;                                                     111P     87
510,101,2,1,105,111;                                                 113P     88
116,-16.0467807963563D0,0.0D0,293.887401229922D0,0;                  115P     89
123,-.258819045102521D0,0.0D0,.965925826289068D0;                    117P     90
190,115,117,121;                                                     119P     91
123,.965925826289068D0,0.0D0,.258819045102521D0;                     121P     92
508,1,0,9,5,0,0;                                                     123P     93
508,1,0,9,1,1,0;                                                     125P     94
510,119,2,1,123,125;                                                 127P     95
116,0.0D0,0.0D0,0.0D0,0;                                             129P     96
123,0.0D0,0.0D0,-1.0D0;                                              131P     97
190,129,131,135;                                                     133P     98
123,-1.0D0,0.0D0,0.0D0;                                              135P     99
508,1,0,9,8,1,0;                                                     137P    100
508,1,0,9,4,1,0;                                                     139P    101
510,133,2,1,137,139;                                                 141P    102
514,8,25,1,43,1,59,1,79,1,95,1,113,1,127,1,141,1;                    143P    103
186,143,1,0;                                                         145P    104
314,75.2941012382507D0,75.2941012382507D0,75.2941012382507D0,;       147P    105
S      1G      3D    148P    105                                        T      1
