ISO-10303-21;
HEADER;
/* Generated by software containing ST-Developer
 * from STEP Tools, Inc. (www.steptools.com) 
 */

FILE_DESCRIPTION(
/* description */ (''),
/* implementation_level */ '2;1');

FILE_NAME(
/* name */ 
'Z:\\Installationskomponenten\\Datenbl\X\E4tter_pdfs\\KI Fittings\\Ski
zzen\\KI-340-Hexagon Nipple\\KI-340\\KI-340-008\\KI-340-008 Aschl.stp',

/* time_stamp */ '2016-06-02T13:34:02+02:00',
/* author */ ('hochmair'),
/* organization */ (''),
/* preprocessor_version */ 'ST-DEVELOPER v15.6',
/* originating_system */ 'Autodesk Inventor 2015',
/* authorisation */ '');

FILE_SCHEMA (('AUTOMOTIVE_DESIGN { 1 0 10303 214 3 1 1 }'));
ENDSEC;

DATA;
#10=MECHANICAL_DESIGN_GEOMETRIC_PRESENTATION_REPRESENTATION('',(#13),#431);
#11=SHAPE_REPRESENTATION_RELATIONSHIP('SRR','None',#440,#12);
#12=ADVANCED_BREP_SHAPE_REPRESENTATION($,(#14),#430);
#13=STYLED_ITEM('',(#450),#14);
#14=MANIFOLD_SOLID_BREP('Solid1',#257);
#15=LINE('',#393,#33);
#16=LINE('',#395,#34);
#17=LINE('',#397,#35);
#18=LINE('',#399,#36);
#19=LINE('',#401,#37);
#20=LINE('',#402,#38);
#21=LINE('',#405,#39);
#22=LINE('',#407,#40);
#23=LINE('',#408,#41);
#24=LINE('',#411,#42);
#25=LINE('',#412,#43);
#26=LINE('',#415,#44);
#27=LINE('',#416,#45);
#28=LINE('',#419,#46);
#29=LINE('',#420,#47);
#30=LINE('',#423,#48);
#31=LINE('',#424,#49);
#32=LINE('',#426,#50);
#33=VECTOR('',#328,9.23760430703402);
#34=VECTOR('',#329,9.23760430703402);
#35=VECTOR('',#330,9.23760430703401);
#36=VECTOR('',#331,9.23760430703401);
#37=VECTOR('',#332,9.23760430703402);
#38=VECTOR('',#333,9.23760430703401);
#39=VECTOR('',#336,5.8);
#40=VECTOR('',#337,9.23760430703402);
#41=VECTOR('',#338,5.8);
#42=VECTOR('',#341,9.23760430703401);
#43=VECTOR('',#342,5.8);
#44=VECTOR('',#345,9.23760430703401);
#45=VECTOR('',#346,5.8);
#46=VECTOR('',#349,9.23760430703402);
#47=VECTOR('',#350,5.8);
#48=VECTOR('',#353,9.23760430703401);
#49=VECTOR('',#354,5.8);
#50=VECTOR('',#357,9.23760430703402);
#51=PLANE('',#264);
#52=PLANE('',#268);
#53=PLANE('',#278);
#54=PLANE('',#279);
#55=PLANE('',#280);
#56=PLANE('',#281);
#57=PLANE('',#282);
#58=PLANE('',#283);
#59=PLANE('',#284);
#60=PLANE('',#285);
#61=CYLINDRICAL_SURFACE('',#262,3.5);
#62=CYLINDRICAL_SURFACE('',#272,6.5785);
#63=CYLINDRICAL_SURFACE('',#276,6.5785);
#64=FACE_BOUND('',#93,.T.);
#65=FACE_BOUND('',#95,.T.);
#66=FACE_BOUND('',#97,.T.);
#67=FACE_BOUND('',#99,.T.);
#68=FACE_BOUND('',#101,.T.);
#69=FACE_BOUND('',#103,.T.);
#70=FACE_BOUND('',#105,.T.);
#71=FACE_BOUND('',#107,.T.);
#72=FACE_BOUND('',#109,.T.);
#73=FACE_BOUND('',#111,.T.);
#74=FACE_BOUND('',#119,.T.);
#75=FACE_OUTER_BOUND('',#92,.T.);
#76=FACE_OUTER_BOUND('',#94,.T.);
#77=FACE_OUTER_BOUND('',#96,.T.);
#78=FACE_OUTER_BOUND('',#98,.T.);
#79=FACE_OUTER_BOUND('',#100,.T.);
#80=FACE_OUTER_BOUND('',#102,.T.);
#81=FACE_OUTER_BOUND('',#104,.T.);
#82=FACE_OUTER_BOUND('',#106,.T.);
#83=FACE_OUTER_BOUND('',#108,.T.);
#84=FACE_OUTER_BOUND('',#110,.T.);
#85=FACE_OUTER_BOUND('',#112,.T.);
#86=FACE_OUTER_BOUND('',#113,.T.);
#87=FACE_OUTER_BOUND('',#114,.T.);
#88=FACE_OUTER_BOUND('',#115,.T.);
#89=FACE_OUTER_BOUND('',#116,.T.);
#90=FACE_OUTER_BOUND('',#117,.T.);
#91=FACE_OUTER_BOUND('',#118,.T.);
#92=EDGE_LOOP('',(#180));
#93=EDGE_LOOP('',(#181));
#94=EDGE_LOOP('',(#182));
#95=EDGE_LOOP('',(#183));
#96=EDGE_LOOP('',(#184));
#97=EDGE_LOOP('',(#185));
#98=EDGE_LOOP('',(#186));
#99=EDGE_LOOP('',(#187));
#100=EDGE_LOOP('',(#188));
#101=EDGE_LOOP('',(#189));
#102=EDGE_LOOP('',(#190));
#103=EDGE_LOOP('',(#191));
#104=EDGE_LOOP('',(#192));
#105=EDGE_LOOP('',(#193));
#106=EDGE_LOOP('',(#194));
#107=EDGE_LOOP('',(#195));
#108=EDGE_LOOP('',(#196));
#109=EDGE_LOOP('',(#197));
#110=EDGE_LOOP('',(#198,#199,#200,#201,#202,#203));
#111=EDGE_LOOP('',(#204));
#112=EDGE_LOOP('',(#205,#206,#207,#208));
#113=EDGE_LOOP('',(#209,#210,#211,#212));
#114=EDGE_LOOP('',(#213,#214,#215,#216));
#115=EDGE_LOOP('',(#217,#218,#219,#220));
#116=EDGE_LOOP('',(#221,#222,#223,#224));
#117=EDGE_LOOP('',(#225,#226,#227,#228));
#118=EDGE_LOOP('',(#229,#230,#231,#232,#233,#234));
#119=EDGE_LOOP('',(#235));
#120=CIRCLE('',#260,3.5);
#121=CIRCLE('',#261,4.);
#122=CIRCLE('',#263,3.5);
#123=CIRCLE('',#265,5.0785);
#124=CIRCLE('',#267,4.);
#125=CIRCLE('',#269,5.0785);
#126=CIRCLE('',#271,6.5785);
#127=CIRCLE('',#273,6.5785);
#128=CIRCLE('',#275,6.5785);
#129=CIRCLE('',#277,6.5785);
#130=VERTEX_POINT('',#362);
#131=VERTEX_POINT('',#364);
#132=VERTEX_POINT('',#367);
#133=VERTEX_POINT('',#370);
#134=VERTEX_POINT('',#373);
#135=VERTEX_POINT('',#376);
#136=VERTEX_POINT('',#379);
#137=VERTEX_POINT('',#382);
#138=VERTEX_POINT('',#385);
#139=VERTEX_POINT('',#388);
#140=VERTEX_POINT('',#391);
#141=VERTEX_POINT('',#392);
#142=VERTEX_POINT('',#394);
#143=VERTEX_POINT('',#396);
#144=VERTEX_POINT('',#398);
#145=VERTEX_POINT('',#400);
#146=VERTEX_POINT('',#404);
#147=VERTEX_POINT('',#406);
#148=VERTEX_POINT('',#410);
#149=VERTEX_POINT('',#414);
#150=VERTEX_POINT('',#418);
#151=VERTEX_POINT('',#422);
#152=EDGE_CURVE('',#130,#130,#120,.T.);
#153=EDGE_CURVE('',#131,#131,#121,.T.);
#154=EDGE_CURVE('',#132,#132,#122,.T.);
#155=EDGE_CURVE('',#133,#133,#123,.T.);
#156=EDGE_CURVE('',#134,#134,#124,.T.);
#157=EDGE_CURVE('',#135,#135,#125,.T.);
#158=EDGE_CURVE('',#136,#136,#126,.T.);
#159=EDGE_CURVE('',#137,#137,#127,.T.);
#160=EDGE_CURVE('',#138,#138,#128,.T.);
#161=EDGE_CURVE('',#139,#139,#129,.T.);
#162=EDGE_CURVE('',#140,#141,#15,.T.);
#163=EDGE_CURVE('',#141,#142,#16,.T.);
#164=EDGE_CURVE('',#142,#143,#17,.T.);
#165=EDGE_CURVE('',#143,#144,#18,.T.);
#166=EDGE_CURVE('',#144,#145,#19,.T.);
#167=EDGE_CURVE('',#145,#140,#20,.T.);
#168=EDGE_CURVE('',#146,#141,#21,.T.);
#169=EDGE_CURVE('',#147,#146,#22,.T.);
#170=EDGE_CURVE('',#147,#142,#23,.T.);
#171=EDGE_CURVE('',#148,#147,#24,.T.);
#172=EDGE_CURVE('',#148,#143,#25,.T.);
#173=EDGE_CURVE('',#149,#148,#26,.T.);
#174=EDGE_CURVE('',#149,#144,#27,.T.);
#175=EDGE_CURVE('',#150,#149,#28,.T.);
#176=EDGE_CURVE('',#150,#145,#29,.T.);
#177=EDGE_CURVE('',#151,#150,#30,.T.);
#178=EDGE_CURVE('',#140,#151,#31,.T.);
#179=EDGE_CURVE('',#146,#151,#32,.T.);
#180=ORIENTED_EDGE('',*,*,#152,.T.);
#181=ORIENTED_EDGE('',*,*,#153,.T.);
#182=ORIENTED_EDGE('',*,*,#154,.F.);
#183=ORIENTED_EDGE('',*,*,#152,.F.);
#184=ORIENTED_EDGE('',*,*,#155,.F.);
#185=ORIENTED_EDGE('',*,*,#153,.F.);
#186=ORIENTED_EDGE('',*,*,#154,.T.);
#187=ORIENTED_EDGE('',*,*,#156,.T.);
#188=ORIENTED_EDGE('',*,*,#157,.F.);
#189=ORIENTED_EDGE('',*,*,#156,.F.);
#190=ORIENTED_EDGE('',*,*,#158,.T.);
#191=ORIENTED_EDGE('',*,*,#155,.T.);
#192=ORIENTED_EDGE('',*,*,#159,.F.);
#193=ORIENTED_EDGE('',*,*,#158,.F.);
#194=ORIENTED_EDGE('',*,*,#160,.T.);
#195=ORIENTED_EDGE('',*,*,#157,.T.);
#196=ORIENTED_EDGE('',*,*,#161,.F.);
#197=ORIENTED_EDGE('',*,*,#160,.F.);
#198=ORIENTED_EDGE('',*,*,#162,.T.);
#199=ORIENTED_EDGE('',*,*,#163,.T.);
#200=ORIENTED_EDGE('',*,*,#164,.T.);
#201=ORIENTED_EDGE('',*,*,#165,.T.);
#202=ORIENTED_EDGE('',*,*,#166,.T.);
#203=ORIENTED_EDGE('',*,*,#167,.T.);
#204=ORIENTED_EDGE('',*,*,#161,.T.);
#205=ORIENTED_EDGE('',*,*,#168,.F.);
#206=ORIENTED_EDGE('',*,*,#169,.F.);
#207=ORIENTED_EDGE('',*,*,#170,.T.);
#208=ORIENTED_EDGE('',*,*,#163,.F.);
#209=ORIENTED_EDGE('',*,*,#170,.F.);
#210=ORIENTED_EDGE('',*,*,#171,.F.);
#211=ORIENTED_EDGE('',*,*,#172,.T.);
#212=ORIENTED_EDGE('',*,*,#164,.F.);
#213=ORIENTED_EDGE('',*,*,#172,.F.);
#214=ORIENTED_EDGE('',*,*,#173,.F.);
#215=ORIENTED_EDGE('',*,*,#174,.T.);
#216=ORIENTED_EDGE('',*,*,#165,.F.);
#217=ORIENTED_EDGE('',*,*,#174,.F.);
#218=ORIENTED_EDGE('',*,*,#175,.F.);
#219=ORIENTED_EDGE('',*,*,#176,.T.);
#220=ORIENTED_EDGE('',*,*,#166,.F.);
#221=ORIENTED_EDGE('',*,*,#176,.F.);
#222=ORIENTED_EDGE('',*,*,#177,.F.);
#223=ORIENTED_EDGE('',*,*,#178,.F.);
#224=ORIENTED_EDGE('',*,*,#167,.F.);
#225=ORIENTED_EDGE('',*,*,#178,.T.);
#226=ORIENTED_EDGE('',*,*,#179,.F.);
#227=ORIENTED_EDGE('',*,*,#168,.T.);
#228=ORIENTED_EDGE('',*,*,#162,.F.);
#229=ORIENTED_EDGE('',*,*,#179,.T.);
#230=ORIENTED_EDGE('',*,*,#177,.T.);
#231=ORIENTED_EDGE('',*,*,#175,.T.);
#232=ORIENTED_EDGE('',*,*,#173,.T.);
#233=ORIENTED_EDGE('',*,*,#171,.T.);
#234=ORIENTED_EDGE('',*,*,#169,.T.);
#235=ORIENTED_EDGE('',*,*,#159,.T.);
#236=CONICAL_SURFACE('',#259,3.75,45.);
#237=CONICAL_SURFACE('',#266,3.75,45.);
#238=CONICAL_SURFACE('',#270,5.8285,45.);
#239=CONICAL_SURFACE('',#274,5.8285,45.);
#240=ADVANCED_FACE('',(#75,#64),#236,.F.);
#241=ADVANCED_FACE('',(#76,#65),#61,.F.);
#242=ADVANCED_FACE('',(#77,#66),#51,.T.);
#243=ADVANCED_FACE('',(#78,#67),#237,.F.);
#244=ADVANCED_FACE('',(#79,#68),#52,.F.);
#245=ADVANCED_FACE('',(#80,#69),#238,.T.);
#246=ADVANCED_FACE('',(#81,#70),#62,.T.);
#247=ADVANCED_FACE('',(#82,#71),#239,.T.);
#248=ADVANCED_FACE('',(#83,#72),#63,.T.);
#249=ADVANCED_FACE('',(#84,#73),#53,.F.);
#250=ADVANCED_FACE('',(#85),#54,.T.);
#251=ADVANCED_FACE('',(#86),#55,.T.);
#252=ADVANCED_FACE('',(#87),#56,.T.);
#253=ADVANCED_FACE('',(#88),#57,.T.);
#254=ADVANCED_FACE('',(#89),#58,.T.);
#255=ADVANCED_FACE('',(#90),#59,.T.);
#256=ADVANCED_FACE('',(#91,#74),#60,.T.);
#257=CLOSED_SHELL('',(#240,#241,#242,#243,#244,#245,#246,#247,#248,#249,
#250,#251,#252,#253,#254,#255,#256));
#258=AXIS2_PLACEMENT_3D('placement',#360,#286,#287);
#259=AXIS2_PLACEMENT_3D('',#361,#288,#289);
#260=AXIS2_PLACEMENT_3D('',#363,#290,#291);
#261=AXIS2_PLACEMENT_3D('',#365,#292,#293);
#262=AXIS2_PLACEMENT_3D('',#366,#294,#295);
#263=AXIS2_PLACEMENT_3D('',#368,#296,#297);
#264=AXIS2_PLACEMENT_3D('',#369,#298,#299);
#265=AXIS2_PLACEMENT_3D('',#371,#300,#301);
#266=AXIS2_PLACEMENT_3D('',#372,#302,#303);
#267=AXIS2_PLACEMENT_3D('',#374,#304,#305);
#268=AXIS2_PLACEMENT_3D('',#375,#306,#307);
#269=AXIS2_PLACEMENT_3D('',#377,#308,#309);
#270=AXIS2_PLACEMENT_3D('',#378,#310,#311);
#271=AXIS2_PLACEMENT_3D('',#380,#312,#313);
#272=AXIS2_PLACEMENT_3D('',#381,#314,#315);
#273=AXIS2_PLACEMENT_3D('',#383,#316,#317);
#274=AXIS2_PLACEMENT_3D('',#384,#318,#319);
#275=AXIS2_PLACEMENT_3D('',#386,#320,#321);
#276=AXIS2_PLACEMENT_3D('',#387,#322,#323);
#277=AXIS2_PLACEMENT_3D('',#389,#324,#325);
#278=AXIS2_PLACEMENT_3D('',#390,#326,#327);
#279=AXIS2_PLACEMENT_3D('',#403,#334,#335);
#280=AXIS2_PLACEMENT_3D('',#409,#339,#340);
#281=AXIS2_PLACEMENT_3D('',#413,#343,#344);
#282=AXIS2_PLACEMENT_3D('',#417,#347,#348);
#283=AXIS2_PLACEMENT_3D('',#421,#351,#352);
#284=AXIS2_PLACEMENT_3D('',#425,#355,#356);
#285=AXIS2_PLACEMENT_3D('',#427,#358,#359);
#286=DIRECTION('axis',(0.,0.,1.));
#287=DIRECTION('refdir',(1.,0.,0.));
#288=DIRECTION('center_axis',(0.,1.,0.));
#289=DIRECTION('ref_axis',(1.,0.,0.));
#290=DIRECTION('center_axis',(0.,-1.,0.));
#291=DIRECTION('ref_axis',(1.,0.,0.));
#292=DIRECTION('center_axis',(0.,1.,0.));
#293=DIRECTION('ref_axis',(1.,0.,0.));
#294=DIRECTION('center_axis',(0.,1.,0.));
#295=DIRECTION('ref_axis',(1.,0.,0.));
#296=DIRECTION('center_axis',(0.,1.,0.));
#297=DIRECTION('ref_axis',(1.,0.,0.));
#298=DIRECTION('center_axis',(0.,1.,0.));
#299=DIRECTION('ref_axis',(0.,0.,1.));
#300=DIRECTION('center_axis',(0.,-1.,0.));
#301=DIRECTION('ref_axis',(1.,0.,0.));
#302=DIRECTION('center_axis',(0.,-1.,0.));
#303=DIRECTION('ref_axis',(1.,0.,0.));
#304=DIRECTION('center_axis',(0.,-1.,0.));
#305=DIRECTION('ref_axis',(1.,0.,0.));
#306=DIRECTION('center_axis',(0.,1.,0.));
#307=DIRECTION('ref_axis',(0.,0.,1.));
#308=DIRECTION('center_axis',(0.,1.,0.));
#309=DIRECTION('ref_axis',(1.,0.,0.));
#310=DIRECTION('center_axis',(0.,-1.,0.));
#311=DIRECTION('ref_axis',(1.,0.,0.));
#312=DIRECTION('center_axis',(0.,1.,0.));
#313=DIRECTION('ref_axis',(1.,0.,0.));
#314=DIRECTION('center_axis',(0.,1.,0.));
#315=DIRECTION('ref_axis',(1.,0.,0.));
#316=DIRECTION('center_axis',(0.,-1.,0.));
#317=DIRECTION('ref_axis',(1.,0.,0.));
#318=DIRECTION('center_axis',(0.,1.,0.));
#319=DIRECTION('ref_axis',(1.,0.,0.));
#320=DIRECTION('center_axis',(0.,-1.,0.));
#321=DIRECTION('ref_axis',(1.,0.,0.));
#322=DIRECTION('center_axis',(0.,1.,0.));
#323=DIRECTION('ref_axis',(1.,0.,0.));
#324=DIRECTION('center_axis',(0.,1.,0.));
#325=DIRECTION('ref_axis',(1.,0.,0.));
#326=DIRECTION('center_axis',(0.,1.,0.));
#327=DIRECTION('ref_axis',(0.,0.,1.));
#328=DIRECTION('',(0.866025403784439,0.,-0.5));
#329=DIRECTION('',(0.866025403784439,0.,0.5));
#330=DIRECTION('',(-4.80740671595891E-16,0.,1.));
#331=DIRECTION('',(-0.866025403784438,0.,0.5));
#332=DIRECTION('',(-0.866025403784439,0.,-0.5));
#333=DIRECTION('',(0.,0.,-1.));
#334=DIRECTION('center_axis',(0.5,0.,-0.866025403784439));
#335=DIRECTION('ref_axis',(-0.866025403784439,0.,-0.5));
#336=DIRECTION('',(0.,-1.,0.));
#337=DIRECTION('',(-0.866025403784439,0.,-0.5));
#338=DIRECTION('',(0.,-1.,0.));
#339=DIRECTION('center_axis',(1.,0.,4.80740671595891E-16));
#340=DIRECTION('ref_axis',(0.,0.,-1.));
#341=DIRECTION('',(4.80740671595891E-16,0.,-1.));
#342=DIRECTION('',(0.,-1.,0.));
#343=DIRECTION('center_axis',(0.5,0.,0.866025403784438));
#344=DIRECTION('ref_axis',(0.866025403784439,0.,-0.5));
#345=DIRECTION('',(0.866025403784438,0.,-0.5));
#346=DIRECTION('',(0.,-1.,0.));
#347=DIRECTION('center_axis',(-0.5,0.,0.866025403784439));
#348=DIRECTION('ref_axis',(0.866025403784439,0.,0.5));
#349=DIRECTION('',(0.866025403784439,0.,0.5));
#350=DIRECTION('',(0.,-1.,0.));
#351=DIRECTION('center_axis',(-1.,0.,0.));
#352=DIRECTION('ref_axis',(0.,0.,1.));
#353=DIRECTION('',(0.,0.,1.));
#354=DIRECTION('',(0.,1.,0.));
#355=DIRECTION('center_axis',(-0.5,0.,-0.866025403784439));
#356=DIRECTION('ref_axis',(-0.866025403784439,0.,0.5));
#357=DIRECTION('',(-0.866025403784439,0.,0.5));
#358=DIRECTION('center_axis',(0.,1.,0.));
#359=DIRECTION('ref_axis',(0.,0.,1.));
#360=CARTESIAN_POINT('',(0.,0.,0.));
#361=CARTESIAN_POINT('Origin',(0.,13.65,0.));
#362=CARTESIAN_POINT('',(-3.5,13.4,-4.28626379701574E-16));
#363=CARTESIAN_POINT('Origin',(0.,13.4,0.));
#364=CARTESIAN_POINT('',(-4.,13.9,4.89858719658941E-16));
#365=CARTESIAN_POINT('Origin',(0.,13.9,0.));
#366=CARTESIAN_POINT('Origin',(0.,0.,0.));
#367=CARTESIAN_POINT('',(-3.5,-13.4,4.28626379701574E-16));
#368=CARTESIAN_POINT('Origin',(0.,-13.4,0.));
#369=CARTESIAN_POINT('Origin',(3.48411784382553E-16,13.9,1.40637813157148E-16));
#370=CARTESIAN_POINT('',(-5.0785,13.9,-6.21936876946983E-16));
#371=CARTESIAN_POINT('Origin',(0.,13.9,0.));
#372=CARTESIAN_POINT('Origin',(0.,-13.65,0.));
#373=CARTESIAN_POINT('',(-4.,-13.9,-4.89858719658941E-16));
#374=CARTESIAN_POINT('Origin',(0.,-13.9,0.));
#375=CARTESIAN_POINT('Origin',(3.48411784382553E-16,-13.9,1.40637813157148E-16));
#376=CARTESIAN_POINT('',(-5.0785,-13.9,6.21936876946983E-16));
#377=CARTESIAN_POINT('Origin',(0.,-13.9,0.));
#378=CARTESIAN_POINT('Origin',(0.,13.15,0.));
#379=CARTESIAN_POINT('',(-6.5785,12.4,8.05633896819086E-16));
#380=CARTESIAN_POINT('Origin',(0.,12.4,0.));
#381=CARTESIAN_POINT('Origin',(0.,0.,0.));
#382=CARTESIAN_POINT('',(-6.5785,2.9,-8.05633896819086E-16));
#383=CARTESIAN_POINT('Origin',(0.,2.9,0.));
#384=CARTESIAN_POINT('Origin',(0.,-13.15,0.));
#385=CARTESIAN_POINT('',(-6.5785,-12.4,-8.05633896819086E-16));
#386=CARTESIAN_POINT('Origin',(0.,-12.4,0.));
#387=CARTESIAN_POINT('Origin',(0.,0.,0.));
#388=CARTESIAN_POINT('',(-6.5785,-2.9,8.05633896819086E-16));
#389=CARTESIAN_POINT('Origin',(0.,-2.9,0.));
#390=CARTESIAN_POINT('Origin',(9.01388759242296E-16,-2.9,-4.8770181377532E-15));
#391=CARTESIAN_POINT('',(-8.,-2.9,-4.61880215351701));
#392=CARTESIAN_POINT('',(0.,-2.9,-9.23760430703402));
#393=CARTESIAN_POINT('',(-8.,-2.9,-4.61880215351701));
#394=CARTESIAN_POINT('',(8.,-2.9,-4.61880215351701));
#395=CARTESIAN_POINT('',(2.77555756156289E-16,-2.9,-9.23760430703402));
#396=CARTESIAN_POINT('',(8.,-2.9,4.618802153517));
#397=CARTESIAN_POINT('',(8.,-2.9,-4.61880215351701));
#398=CARTESIAN_POINT('',(4.44089209850063E-15,-2.9,9.23760430703401));
#399=CARTESIAN_POINT('',(8.,-2.9,4.618802153517));
#400=CARTESIAN_POINT('',(-8.,-2.9,4.618802153517));
#401=CARTESIAN_POINT('',(4.71844785465692E-15,-2.9,9.23760430703401));
#402=CARTESIAN_POINT('',(-8.,-2.9,4.618802153517));
#403=CARTESIAN_POINT('Origin',(8.,0.,-4.61880215351701));
#404=CARTESIAN_POINT('',(0.,2.9,-9.23760430703402));
#405=CARTESIAN_POINT('',(2.77555756156289E-16,0.,-9.23760430703402));
#406=CARTESIAN_POINT('',(8.,2.9,-4.61880215351701));
#407=CARTESIAN_POINT('',(2.77555756156289E-16,2.9,-9.23760430703402));
#408=CARTESIAN_POINT('',(8.,0.,-4.61880215351701));
#409=CARTESIAN_POINT('Origin',(8.,0.,4.618802153517));
#410=CARTESIAN_POINT('',(8.,2.9,4.618802153517));
#411=CARTESIAN_POINT('',(8.,2.9,-4.61880215351701));
#412=CARTESIAN_POINT('',(8.,0.,4.618802153517));
#413=CARTESIAN_POINT('Origin',(4.44089209850063E-15,0.,9.23760430703401));
#414=CARTESIAN_POINT('',(4.44089209850063E-15,2.9,9.23760430703401));
#415=CARTESIAN_POINT('',(8.,2.9,4.618802153517));
#416=CARTESIAN_POINT('',(4.71844785465692E-15,0.,9.23760430703401));
#417=CARTESIAN_POINT('Origin',(-8.,0.,4.618802153517));
#418=CARTESIAN_POINT('',(-8.,2.9,4.618802153517));
#419=CARTESIAN_POINT('',(4.71844785465692E-15,2.9,9.23760430703401));
#420=CARTESIAN_POINT('',(-8.,0.,4.618802153517));
#421=CARTESIAN_POINT('Origin',(-8.,0.,-4.61880215351701));
#422=CARTESIAN_POINT('',(-8.,2.9,-4.61880215351701));
#423=CARTESIAN_POINT('',(-8.,2.9,4.618802153517));
#424=CARTESIAN_POINT('',(-8.,0.,-4.61880215351701));
#425=CARTESIAN_POINT('Origin',(2.22044604925031E-15,0.,-9.23760430703402));
#426=CARTESIAN_POINT('',(-8.,2.9,-4.61880215351701));
#427=CARTESIAN_POINT('Origin',(9.01388759242296E-16,2.9,-4.8770181377532E-15));
#428=UNCERTAINTY_MEASURE_WITH_UNIT(LENGTH_MEASURE(0.01),#432,
'DISTANCE_ACCURACY_VALUE',
'Maximum model space distance between geometric entities at asserted c
onnectivities');
#429=UNCERTAINTY_MEASURE_WITH_UNIT(LENGTH_MEASURE(1.E-6),#432,
'DISTANCE_ACCURACY_VALUE',
'Maximum model space distance between geometric entities at asserted c
onnectivities');
#430=(
GEOMETRIC_REPRESENTATION_CONTEXT(3)
GLOBAL_UNCERTAINTY_ASSIGNED_CONTEXT((#428))
GLOBAL_UNIT_ASSIGNED_CONTEXT((#432,#435,#433))
REPRESENTATION_CONTEXT('','3D')
);
#431=(
GEOMETRIC_REPRESENTATION_CONTEXT(3)
GLOBAL_UNCERTAINTY_ASSIGNED_CONTEXT((#429))
GLOBAL_UNIT_ASSIGNED_CONTEXT((#432,#435,#433))
REPRESENTATION_CONTEXT('','3D')
);
#432=(
LENGTH_UNIT()
NAMED_UNIT(*)
SI_UNIT(.MILLI.,.METRE.)
);
#433=(
NAMED_UNIT(*)
SI_UNIT($,.STERADIAN.)
SOLID_ANGLE_UNIT()
);
#434=DIMENSIONAL_EXPONENTS(0.,0.,0.,0.,0.,0.,0.);
#435=(
CONVERSION_BASED_UNIT('degree',#437)
NAMED_UNIT(#434)
PLANE_ANGLE_UNIT()
);
#436=(
NAMED_UNIT(*)
PLANE_ANGLE_UNIT()
SI_UNIT($,.RADIAN.)
);
#437=PLANE_ANGLE_MEASURE_WITH_UNIT(PLANE_ANGLE_MEASURE(0.01745329252),#436);
#438=SHAPE_DEFINITION_REPRESENTATION(#439,#440);
#439=PRODUCT_DEFINITION_SHAPE('',$,#442);
#440=SHAPE_REPRESENTATION('',(#258),#430);
#441=PRODUCT_DEFINITION_CONTEXT('part definition',#446,'design');
#442=PRODUCT_DEFINITION('TB11381855','TB11381855',#443,#441);
#443=PRODUCT_DEFINITION_FORMATION('',$,#448);
#444=PRODUCT_RELATED_PRODUCT_CATEGORY('TB11381855','TB11381855',(#448));
#445=APPLICATION_PROTOCOL_DEFINITION('international standard',
'automotive_design',2009,#446);
#446=APPLICATION_CONTEXT(
'Core Data for Automotive Mechanical Design Process');
#447=PRODUCT_CONTEXT('part definition',#446,'mechanical');
#448=PRODUCT('TB11381855','TB11381855',$,(#447));
#449=PRESENTATION_STYLE_ASSIGNMENT((#451));
#450=PRESENTATION_STYLE_ASSIGNMENT((#452));
#451=SURFACE_STYLE_USAGE(.BOTH.,#453);
#452=SURFACE_STYLE_USAGE(.BOTH.,#454);
#453=SURFACE_SIDE_STYLE($,(#455));
#454=SURFACE_SIDE_STYLE($,(#456));
#455=SURFACE_STYLE_FILL_AREA(#457);
#456=SURFACE_STYLE_FILL_AREA(#458);
#457=FILL_AREA_STYLE($,(#459));
#458=FILL_AREA_STYLE($,(#460));
#459=FILL_AREA_STYLE_COLOUR($,#461);
#460=FILL_AREA_STYLE_COLOUR($,#462);
#461=COLOUR_RGB('',0.749019607843137,0.749019607843137,0.749019607843137);
#462=COLOUR_RGB('',0.745098039215686,0.737254901960784,0.729411764705882);
ENDSEC;
END-ISO-10303-21;
