ISO-10303-21;
HEADER;
/* Generated by software containing ST-Developer
 * from STEP Tools, Inc. (www.steptools.com) 
 */

FILE_DESCRIPTION(
/* description */ (''),
/* implementation_level */ '2;1');

FILE_NAME(
/* name */ 
'Z:\\Installationskomponenten\\Datenbl\X\E4tter_pdfs\\KI Fittings\\Ski
zzen\\KI-310\\KI-310-025 Aschl.stp',
/* time_stamp */ '2016-06-02T14:28:25+02:00',
/* author */ ('hochmair'),
/* organization */ (''),
/* preprocessor_version */ 'ST-DEVELOPER v15.6',
/* originating_system */ 'Autodesk Inventor 2015',
/* authorisation */ '');

FILE_SCHEMA (('AUTOMOTIVE_DESIGN { 1 0 10303 214 3 1 1 }'));
ENDSEC;

DATA;
#10=MECHANICAL_DESIGN_GEOMETRIC_PRESENTATION_REPRESENTATION('',(#13),#263);
#11=SHAPE_REPRESENTATION_RELATIONSHIP('SRR','None',#272,#12);
#12=ADVANCED_BREP_SHAPE_REPRESENTATION($,(#14),#262);
#13=STYLED_ITEM('',(#282),#14);
#14=MANIFOLD_SOLID_BREP('Solid1',#147);
#15=PLANE('',#154);
#16=PLANE('',#158);
#17=PLANE('',#168);
#18=PLANE('',#170);
#19=CYLINDRICAL_SURFACE('',#152,13.5);
#20=CYLINDRICAL_SURFACE('',#162,16.6245);
#21=CYLINDRICAL_SURFACE('',#166,16.6245);
#22=CYLINDRICAL_SURFACE('',#172,16.7245);
#23=FACE_BOUND('',#48,.T.);
#24=FACE_BOUND('',#50,.T.);
#25=FACE_BOUND('',#52,.T.);
#26=FACE_BOUND('',#54,.T.);
#27=FACE_BOUND('',#56,.T.);
#28=FACE_BOUND('',#58,.T.);
#29=FACE_BOUND('',#60,.T.);
#30=FACE_BOUND('',#62,.T.);
#31=FACE_BOUND('',#64,.T.);
#32=FACE_BOUND('',#66,.T.);
#33=FACE_BOUND('',#68,.T.);
#34=FACE_BOUND('',#70,.T.);
#35=FACE_OUTER_BOUND('',#47,.T.);
#36=FACE_OUTER_BOUND('',#49,.T.);
#37=FACE_OUTER_BOUND('',#51,.T.);
#38=FACE_OUTER_BOUND('',#53,.T.);
#39=FACE_OUTER_BOUND('',#55,.T.);
#40=FACE_OUTER_BOUND('',#57,.T.);
#41=FACE_OUTER_BOUND('',#59,.T.);
#42=FACE_OUTER_BOUND('',#61,.T.);
#43=FACE_OUTER_BOUND('',#63,.T.);
#44=FACE_OUTER_BOUND('',#65,.T.);
#45=FACE_OUTER_BOUND('',#67,.T.);
#46=FACE_OUTER_BOUND('',#69,.T.);
#47=EDGE_LOOP('',(#107));
#48=EDGE_LOOP('',(#108));
#49=EDGE_LOOP('',(#109));
#50=EDGE_LOOP('',(#110));
#51=EDGE_LOOP('',(#111));
#52=EDGE_LOOP('',(#112));
#53=EDGE_LOOP('',(#113));
#54=EDGE_LOOP('',(#114));
#55=EDGE_LOOP('',(#115));
#56=EDGE_LOOP('',(#116));
#57=EDGE_LOOP('',(#117));
#58=EDGE_LOOP('',(#118));
#59=EDGE_LOOP('',(#119));
#60=EDGE_LOOP('',(#120));
#61=EDGE_LOOP('',(#121));
#62=EDGE_LOOP('',(#122));
#63=EDGE_LOOP('',(#123));
#64=EDGE_LOOP('',(#124));
#65=EDGE_LOOP('',(#125));
#66=EDGE_LOOP('',(#126));
#67=EDGE_LOOP('',(#127));
#68=EDGE_LOOP('',(#128));
#69=EDGE_LOOP('',(#129));
#70=EDGE_LOOP('',(#130));
#71=CIRCLE('',#150,13.5);
#72=CIRCLE('',#151,14.);
#73=CIRCLE('',#153,13.5);
#74=CIRCLE('',#155,15.583);
#75=CIRCLE('',#157,14.);
#76=CIRCLE('',#159,15.583);
#77=CIRCLE('',#161,16.6245);
#78=CIRCLE('',#163,16.6245);
#79=CIRCLE('',#165,16.6245);
#80=CIRCLE('',#167,16.6245);
#81=CIRCLE('',#169,16.7245);
#82=CIRCLE('',#171,16.7245);
#83=VERTEX_POINT('',#225);
#84=VERTEX_POINT('',#227);
#85=VERTEX_POINT('',#230);
#86=VERTEX_POINT('',#233);
#87=VERTEX_POINT('',#236);
#88=VERTEX_POINT('',#239);
#89=VERTEX_POINT('',#242);
#90=VERTEX_POINT('',#245);
#91=VERTEX_POINT('',#248);
#92=VERTEX_POINT('',#251);
#93=VERTEX_POINT('',#254);
#94=VERTEX_POINT('',#257);
#95=EDGE_CURVE('',#83,#83,#71,.T.);
#96=EDGE_CURVE('',#84,#84,#72,.T.);
#97=EDGE_CURVE('',#85,#85,#73,.T.);
#98=EDGE_CURVE('',#86,#86,#74,.T.);
#99=EDGE_CURVE('',#87,#87,#75,.T.);
#100=EDGE_CURVE('',#88,#88,#76,.T.);
#101=EDGE_CURVE('',#89,#89,#77,.T.);
#102=EDGE_CURVE('',#90,#90,#78,.T.);
#103=EDGE_CURVE('',#91,#91,#79,.T.);
#104=EDGE_CURVE('',#92,#92,#80,.T.);
#105=EDGE_CURVE('',#93,#93,#81,.T.);
#106=EDGE_CURVE('',#94,#94,#82,.T.);
#107=ORIENTED_EDGE('',*,*,#95,.T.);
#108=ORIENTED_EDGE('',*,*,#96,.T.);
#109=ORIENTED_EDGE('',*,*,#97,.F.);
#110=ORIENTED_EDGE('',*,*,#95,.F.);
#111=ORIENTED_EDGE('',*,*,#98,.F.);
#112=ORIENTED_EDGE('',*,*,#96,.F.);
#113=ORIENTED_EDGE('',*,*,#97,.T.);
#114=ORIENTED_EDGE('',*,*,#99,.T.);
#115=ORIENTED_EDGE('',*,*,#100,.F.);
#116=ORIENTED_EDGE('',*,*,#99,.F.);
#117=ORIENTED_EDGE('',*,*,#101,.T.);
#118=ORIENTED_EDGE('',*,*,#100,.T.);
#119=ORIENTED_EDGE('',*,*,#102,.T.);
#120=ORIENTED_EDGE('',*,*,#101,.F.);
#121=ORIENTED_EDGE('',*,*,#103,.T.);
#122=ORIENTED_EDGE('',*,*,#98,.T.);
#123=ORIENTED_EDGE('',*,*,#104,.T.);
#124=ORIENTED_EDGE('',*,*,#103,.F.);
#125=ORIENTED_EDGE('',*,*,#105,.T.);
#126=ORIENTED_EDGE('',*,*,#102,.F.);
#127=ORIENTED_EDGE('',*,*,#106,.T.);
#128=ORIENTED_EDGE('',*,*,#104,.F.);
#129=ORIENTED_EDGE('',*,*,#105,.F.);
#130=ORIENTED_EDGE('',*,*,#106,.F.);
#131=CONICAL_SURFACE('',#149,13.75,45.0000000000001);
#132=CONICAL_SURFACE('',#156,13.75,45.0000000000001);
#133=CONICAL_SURFACE('',#160,16.10375,44.9999999999999);
#134=CONICAL_SURFACE('',#164,16.10375,44.9999999999999);
#135=ADVANCED_FACE('',(#35,#23),#131,.F.);
#136=ADVANCED_FACE('',(#36,#24),#19,.F.);
#137=ADVANCED_FACE('',(#37,#25),#15,.T.);
#138=ADVANCED_FACE('',(#38,#26),#132,.F.);
#139=ADVANCED_FACE('',(#39,#27),#16,.F.);
#140=ADVANCED_FACE('',(#40,#28),#133,.T.);
#141=ADVANCED_FACE('',(#41,#29),#20,.T.);
#142=ADVANCED_FACE('',(#42,#30),#134,.T.);
#143=ADVANCED_FACE('',(#43,#31),#21,.T.);
#144=ADVANCED_FACE('',(#44,#32),#17,.F.);
#145=ADVANCED_FACE('',(#45,#33),#18,.T.);
#146=ADVANCED_FACE('',(#46,#34),#22,.T.);
#147=CLOSED_SHELL('',(#135,#136,#137,#138,#139,#140,#141,#142,#143,#144,
#145,#146));
#148=AXIS2_PLACEMENT_3D('placement',#223,#173,#174);
#149=AXIS2_PLACEMENT_3D('',#224,#175,#176);
#150=AXIS2_PLACEMENT_3D('',#226,#177,#178);
#151=AXIS2_PLACEMENT_3D('',#228,#179,#180);
#152=AXIS2_PLACEMENT_3D('',#229,#181,#182);
#153=AXIS2_PLACEMENT_3D('',#231,#183,#184);
#154=AXIS2_PLACEMENT_3D('',#232,#185,#186);
#155=AXIS2_PLACEMENT_3D('',#234,#187,#188);
#156=AXIS2_PLACEMENT_3D('',#235,#189,#190);
#157=AXIS2_PLACEMENT_3D('',#237,#191,#192);
#158=AXIS2_PLACEMENT_3D('',#238,#193,#194);
#159=AXIS2_PLACEMENT_3D('',#240,#195,#196);
#160=AXIS2_PLACEMENT_3D('',#241,#197,#198);
#161=AXIS2_PLACEMENT_3D('',#243,#199,#200);
#162=AXIS2_PLACEMENT_3D('',#244,#201,#202);
#163=AXIS2_PLACEMENT_3D('',#246,#203,#204);
#164=AXIS2_PLACEMENT_3D('',#247,#205,#206);
#165=AXIS2_PLACEMENT_3D('',#249,#207,#208);
#166=AXIS2_PLACEMENT_3D('',#250,#209,#210);
#167=AXIS2_PLACEMENT_3D('',#252,#211,#212);
#168=AXIS2_PLACEMENT_3D('',#253,#213,#214);
#169=AXIS2_PLACEMENT_3D('',#255,#215,#216);
#170=AXIS2_PLACEMENT_3D('',#256,#217,#218);
#171=AXIS2_PLACEMENT_3D('',#258,#219,#220);
#172=AXIS2_PLACEMENT_3D('',#259,#221,#222);
#173=DIRECTION('axis',(0.,0.,1.));
#174=DIRECTION('refdir',(1.,0.,0.));
#175=DIRECTION('center_axis',(0.,1.,0.));
#176=DIRECTION('ref_axis',(1.,0.,0.));
#177=DIRECTION('center_axis',(0.,-1.,0.));
#178=DIRECTION('ref_axis',(1.,0.,0.));
#179=DIRECTION('center_axis',(0.,1.,0.));
#180=DIRECTION('ref_axis',(1.,0.,0.));
#181=DIRECTION('center_axis',(0.,1.,0.));
#182=DIRECTION('ref_axis',(1.,0.,0.));
#183=DIRECTION('center_axis',(0.,1.,0.));
#184=DIRECTION('ref_axis',(1.,0.,0.));
#185=DIRECTION('center_axis',(0.,1.,0.));
#186=DIRECTION('ref_axis',(0.,0.,1.));
#187=DIRECTION('center_axis',(0.,-1.,0.));
#188=DIRECTION('ref_axis',(1.,0.,0.));
#189=DIRECTION('center_axis',(0.,-1.,0.));
#190=DIRECTION('ref_axis',(1.,0.,0.));
#191=DIRECTION('center_axis',(0.,-1.,0.));
#192=DIRECTION('ref_axis',(1.,0.,0.));
#193=DIRECTION('center_axis',(0.,1.,0.));
#194=DIRECTION('ref_axis',(0.,0.,1.));
#195=DIRECTION('center_axis',(0.,1.,0.));
#196=DIRECTION('ref_axis',(1.,0.,0.));
#197=DIRECTION('center_axis',(0.,1.,0.));
#198=DIRECTION('ref_axis',(1.,0.,0.));
#199=DIRECTION('center_axis',(0.,-1.,0.));
#200=DIRECTION('ref_axis',(1.,0.,0.));
#201=DIRECTION('center_axis',(0.,1.,0.));
#202=DIRECTION('ref_axis',(1.,0.,0.));
#203=DIRECTION('center_axis',(0.,-1.,0.));
#204=DIRECTION('ref_axis',(1.,0.,0.));
#205=DIRECTION('center_axis',(0.,-1.,0.));
#206=DIRECTION('ref_axis',(1.,0.,0.));
#207=DIRECTION('center_axis',(0.,1.,0.));
#208=DIRECTION('ref_axis',(1.,0.,0.));
#209=DIRECTION('center_axis',(0.,1.,0.));
#210=DIRECTION('ref_axis',(1.,0.,0.));
#211=DIRECTION('center_axis',(0.,1.,0.));
#212=DIRECTION('ref_axis',(1.,0.,0.));
#213=DIRECTION('center_axis',(0.,1.,0.));
#214=DIRECTION('ref_axis',(0.,0.,1.));
#215=DIRECTION('center_axis',(0.,-1.,0.));
#216=DIRECTION('ref_axis',(1.,0.,0.));
#217=DIRECTION('center_axis',(0.,1.,0.));
#218=DIRECTION('ref_axis',(0.,0.,1.));
#219=DIRECTION('center_axis',(0.,1.,0.));
#220=DIRECTION('ref_axis',(1.,0.,0.));
#221=DIRECTION('center_axis',(0.,1.,0.));
#222=DIRECTION('ref_axis',(1.,0.,0.));
#223=CARTESIAN_POINT('',(0.,0.,0.));
#224=CARTESIAN_POINT('Origin',(0.,29.75,0.));
#225=CARTESIAN_POINT('',(-13.5,29.5,-1.65327317884893E-15));
#226=CARTESIAN_POINT('Origin',(0.,29.5,0.));
#227=CARTESIAN_POINT('',(-14.,30.,1.71450551880629E-15));
#228=CARTESIAN_POINT('Origin',(0.,30.,0.));
#229=CARTESIAN_POINT('Origin',(0.,0.,0.));
#230=CARTESIAN_POINT('',(-13.5,-29.5,1.65327317884893E-15));
#231=CARTESIAN_POINT('Origin',(0.,-29.5,0.));
#232=CARTESIAN_POINT('Origin',(1.06009071659998E-15,30.,0.));
#233=CARTESIAN_POINT('',(-15.583,30.,-1.90836710711132E-15));
#234=CARTESIAN_POINT('Origin',(0.,30.,0.));
#235=CARTESIAN_POINT('Origin',(0.,-29.75,0.));
#236=CARTESIAN_POINT('',(-14.,-30.,-1.71450551880629E-15));
#237=CARTESIAN_POINT('Origin',(0.,-30.,0.));
#238=CARTESIAN_POINT('Origin',(1.06009071659998E-15,-30.,0.));
#239=CARTESIAN_POINT('',(-15.583,-30.,1.90836710711132E-15));
#240=CARTESIAN_POINT('Origin',(0.,-30.,0.));
#241=CARTESIAN_POINT('Origin',(0.,-29.47925,0.));
#242=CARTESIAN_POINT('',(-16.6245,-28.9585,-2.03591407124252E-15));
#243=CARTESIAN_POINT('Origin',(0.,-28.9585,0.));
#244=CARTESIAN_POINT('Origin',(0.,0.,0.));
#245=CARTESIAN_POINT('',(-16.6245,-11.,-2.03591407124252E-15));
#246=CARTESIAN_POINT('Origin',(0.,-11.,0.));
#247=CARTESIAN_POINT('Origin',(0.,29.47925,0.));
#248=CARTESIAN_POINT('',(-16.6245,28.9585,2.03591407124252E-15));
#249=CARTESIAN_POINT('Origin',(0.,28.9585,0.));
#250=CARTESIAN_POINT('Origin',(0.,0.,0.));
#251=CARTESIAN_POINT('',(-16.6245,11.,2.03591407124252E-15));
#252=CARTESIAN_POINT('Origin',(0.,11.,0.));
#253=CARTESIAN_POINT('Origin',(6.13233593971077E-16,-11.,-2.21276774517456E-16));
#254=CARTESIAN_POINT('',(-16.7245,-11.,2.04816053923399E-15));
#255=CARTESIAN_POINT('Origin',(0.,-11.,0.));
#256=CARTESIAN_POINT('Origin',(6.13233593971077E-16,11.,-2.21276774517456E-16));
#257=CARTESIAN_POINT('',(-16.7245,11.,2.04816053923399E-15));
#258=CARTESIAN_POINT('Origin',(0.,11.,0.));
#259=CARTESIAN_POINT('Origin',(0.,0.,0.));
#260=UNCERTAINTY_MEASURE_WITH_UNIT(LENGTH_MEASURE(0.01),#264,
'DISTANCE_ACCURACY_VALUE',
'Maximum model space distance between geometric entities at asserted c
onnectivities');
#261=UNCERTAINTY_MEASURE_WITH_UNIT(LENGTH_MEASURE(1.E-6),#264,
'DISTANCE_ACCURACY_VALUE',
'Maximum model space distance between geometric entities at asserted c
onnectivities');
#262=(
GEOMETRIC_REPRESENTATION_CONTEXT(3)
GLOBAL_UNCERTAINTY_ASSIGNED_CONTEXT((#260))
GLOBAL_UNIT_ASSIGNED_CONTEXT((#264,#267,#265))
REPRESENTATION_CONTEXT('','3D')
);
#263=(
GEOMETRIC_REPRESENTATION_CONTEXT(3)
GLOBAL_UNCERTAINTY_ASSIGNED_CONTEXT((#261))
GLOBAL_UNIT_ASSIGNED_CONTEXT((#264,#267,#265))
REPRESENTATION_CONTEXT('','3D')
);
#264=(
LENGTH_UNIT()
NAMED_UNIT(*)
SI_UNIT(.MILLI.,.METRE.)
);
#265=(
NAMED_UNIT(*)
SI_UNIT($,.STERADIAN.)
SOLID_ANGLE_UNIT()
);
#266=DIMENSIONAL_EXPONENTS(0.,0.,0.,0.,0.,0.,0.);
#267=(
CONVERSION_BASED_UNIT('degree',#269)
NAMED_UNIT(#266)
PLANE_ANGLE_UNIT()
);
#268=(
NAMED_UNIT(*)
PLANE_ANGLE_UNIT()
SI_UNIT($,.RADIAN.)
);
#269=PLANE_ANGLE_MEASURE_WITH_UNIT(PLANE_ANGLE_MEASURE(0.01745329252),#268);
#270=SHAPE_DEFINITION_REPRESENTATION(#271,#272);
#271=PRODUCT_DEFINITION_SHAPE('',$,#274);
#272=SHAPE_REPRESENTATION('',(#148),#262);
#273=PRODUCT_DEFINITION_CONTEXT('part definition',#278,'design');
#274=PRODUCT_DEFINITION('KI-310-025','KI-310-025',#275,#273);
#275=PRODUCT_DEFINITION_FORMATION('',$,#280);
#276=PRODUCT_RELATED_PRODUCT_CATEGORY('KI-310-025','KI-310-025',(#280));
#277=APPLICATION_PROTOCOL_DEFINITION('international standard',
'automotive_design',2009,#278);
#278=APPLICATION_CONTEXT(
'Core Data for Automotive Mechanical Design Process');
#279=PRODUCT_CONTEXT('part definition',#278,'mechanical');
#280=PRODUCT('KI-310-025','KI-310-025',$,(#279));
#281=PRESENTATION_STYLE_ASSIGNMENT((#283));
#282=PRESENTATION_STYLE_ASSIGNMENT((#284));
#283=SURFACE_STYLE_USAGE(.BOTH.,#285);
#284=SURFACE_STYLE_USAGE(.BOTH.,#286);
#285=SURFACE_SIDE_STYLE($,(#287));
#286=SURFACE_SIDE_STYLE($,(#288));
#287=SURFACE_STYLE_FILL_AREA(#289);
#288=SURFACE_STYLE_FILL_AREA(#290);
#289=FILL_AREA_STYLE($,(#291));
#290=FILL_AREA_STYLE($,(#292));
#291=FILL_AREA_STYLE_COLOUR($,#293);
#292=FILL_AREA_STYLE_COLOUR($,#294);
#293=COLOUR_RGB('',0.749019607843137,0.749019607843137,0.749019607843137);
#294=COLOUR_RGB('',0.745098039215686,0.737254901960784,0.729411764705882);
ENDSEC;
END-ISO-10303-21;
