                                                                        S      1
,,5HS74AF,27HNo Iges File Name specified,22HAutodesk Inventor 2012,37HAuG      1
toDesk Inventor Iges Exporter R2012,32,38,6,99,15,5HS74AF,1.0D0,2,2HMM, G      2
1,.08D0,15H20130604.105237,.01D0,10000.0D0,6Haporro,,11,0,,;            G      3
     406       1       0       0       1       0       0       000000000D      1
     406       0       0       1       3                               0D      2
     120       2       0       0       0       0       0       000010000D      3
     120       0       0       1       0                               0D      4
     110       3       0       0       0       0       0       000010000D      5
     110       0       0       2       0                               0D      6
     110       5       0       0       0       0       0       001010000D      7
     110       0       0       2       0                               0D      8
     504       7       0       0       0       0       0       000010001D      9
     504       0       0       2       1                               0D     10
     502       9       0       0       0       0       0       000010000D     11
     502       0       0       8       1                               0D     12
     100      17       0       0       0       0      15       000010000D     13
     100       0       0       2       0                               0D     14
     124      19       0       0       0       0       0       000000000D     15
     124       0       0       3       0                               0D     16
     508      22       0       0       0       0       0       000010000D     17
     508       0       0       1       1                               0D     18
     100      23       0       0       0       0      21       000010000D     19
     100       0       0       2       0                               0D     20
     124      25       0       0       0       0       0       000000000D     21
     124       0       0       3       0                               0D     22
     508      28       0       0       0       0       0       000010000D     23
     508       0       0       1       1                               0D     24
     510      29       0       0       0       0       0       000010000D     25
     510       0    -145       1       1                               0D     26
     120      30       0       0       0       0       0       000010000D     27
     120       0       0       1       0                               0D     28
     100      31       0       0       0       0      31       000010000D     29
     100       0       0       1       0                               0D     30
     124      32       0       0       0       0       0       000000000D     31
     124       0       0       2       0                               0D     32
     110      34       0       0       0       0       0       001010000D     33
     110       0       0       2       0                               0D     34
     508      36       0       0       0       0       0       000010000D     35
     508       0       0       1       1                               0D     36
     100      37       0       0       0       0      39       000010000D     37
     100       0       0       2       0                               0D     38
     124      39       0       0       0       0       0       000000000D     39
     124       0       0       2       0                               0D     40
     508      41       0       0       0       0       0       000010000D     41
     508       0       0       1       1                               0D     42
     510      42       0       0       0       0       0       000010000D     43
     510       0    -145       1       1                               0D     44
     120      43       0       0       0       0       0       000010000D     45
     120       0       0       1       0                               0D     46
     110      44       0       0       0       0       0       000010000D     47
     110       0       0       2       0                               0D     48
     110      46       0       0       0       0       0       001010000D     49
     110       0       0       2       0                               0D     50
     508      48       0       0       0       0       0       000010000D     51
     508       0       0       1       1                               0D     52
     100      49       0       0       0       0      55       000010000D     53
     100       0       0       2       0                               0D     54
     124      51       0       0       0       0       0       000000000D     55
     124       0       0       2       0                               0D     56
     508      53       0       0       0       0       0       000010000D     57
     508       0       0       1       1                               0D     58
     510      54       0       0       0       0       0       000010000D     59
     510       0    -145       1       1                               0D     60
     116      55       0       0       0       0       0       000010000D     61
     116       0       0       1       0                               0D     62
     123      56       0       0       0       0       0       000010200D     63
     123       0       0       1       0                               0D     64
     192      57       0       0       0       0       0       000010000D     65
     192       0       0       1       1                               0D     66
     123      58       0       0       0       0       0       000010200D     67
     123       0       0       1       0                               0D     68
     100      59       0       0       0       0      15       000010000D     69
     100       0       0       2       0                               0D     70
     508      61       0       0       0       0       0       000010000D     71
     508       0       0       1       1                               0D     72
     100      62       0       0       0       0      21       000010000D     73
     100       0       0       2       0                               0D     74
     508      64       0       0       0       0       0       000010000D     75
     508       0       0       1       1                               0D     76
     510      65       0       0       0       0       0       000010000D     77
     510       0    -145       1       1                               0D     78
     116      66       0       0       0       0       0       000010000D     79
     116       0       0       1       0                               0D     80
     123      67       0       0       0       0       0       000010200D     81
     123       0       0       1       0                               0D     82
     198      68       0       0       0       0       0       000010000D     83
     198       0       0       1       1                               0D     84
     123      69       0       0       0       0       0       000010200D     85
     123       0       0       1       0                               0D     86
     508      70       0       0       0       0       0       000010000D     87
     508       0       0       1       1                               0D     88
     100      71       0       0       0       0      39       000010000D     89
     100       0       0       2       0                               0D     90
     508      73       0       0       0       0       0       000010000D     91
     508       0       0       1       1                               0D     92
     510      74       0       0       0       0       0       000010000D     93
     510       0    -145       1       1                               0D     94
     116      75       0       0       0       0       0       000010000D     95
     116       0       0       1       0                               0D     96
     123      76       0       0       0       0       0       000010200D     97
     123       0       0       1       0                               0D     98
     192      77       0       0       0       0       0       000010000D     99
     192       0       0       1       1                               0D    100
     123      78       0       0       0       0       0       000010200D    101
     123       0       0       1       0                               0D    102
     508      79       0       0       0       0       0       000010000D    103
     508       0       0       1       1                               0D    104
     100      80       0       0       0       0     107       000010000D    105
     100       0       0       2       0                               0D    106
     124      82       0       0       0       0       0       000000000D    107
     124       0       0       2       0                               0D    108
     508      84       0       0       0       0       0       000010000D    109
     508       0       0       1       1                               0D    110
     510      85       0       0       0       0       0       000010000D    111
     510       0    -145       1       1                               0D    112
     116      86       0       0       0       0       0       000010000D    113
     116       0       0       1       0                               0D    114
     123      87       0       0       0       0       0       000010200D    115
     123       0       0       1       0                               0D    116
     190      88       0       0       0       0       0       000010000D    117
     190       0       0       1       1                               0D    118
     123      89       0       0       0       0       0       000010200D    119
     123       0       0       1       0                               0D    120
     508      90       0       0       0       0       0       000010000D    121
     508       0       0       1       1                               0D    122
     508      91       0       0       0       0       0       000010000D    123
     508       0       0       1       1                               0D    124
     510      92       0       0       0       0       0       000010000D    125
     510       0    -145       1       1                               0D    126
     116      93       0       0       0       0       0       000010000D    127
     116       0       0       1       0                               0D    128
     123      94       0       0       0       0       0       000010200D    129
     123       0       0       1       0                               0D    130
     190      95       0       0       0       0       0       000010000D    131
     190       0       0       1       1                               0D    132
     123      96       0       0       0       0       0       000010200D    133
     123       0       0       1       0                               0D    134
     508      97       0       0       0       0       0       000010000D    135
     508       0       0       1       1                               0D    136
     508      98       0       0       0       0       0       000010000D    137
     508       0       0       1       1                               0D    138
     510      99       0       0       0       0       0       000010000D    139
     510       0    -145       1       1                               0D    140
     514     100       0       0       0       0       0       000010000D    141
     514       0       0       1       1                               0D    142
     186     101       0       0       1       0       0       000000000D    143
     186       0       0       1       0                 Solido1       0D    144
     314     102       0       0       0       0       0       000000000D    145
     314       0       8       1       0                               0D    146
406,2,0,5HS74AF;                                                       1P      1
120,7,5,0.0D0,6.28318530717959D0;                                      3P      2
110,-17.9157171088858D0,0.0D0,136.030932286621D0,                      5P      3
-38.7733937586588D0,0.0D0,172.157487971871D0;                          5P      4
110,-7.09039956158035D0,0.0D0,142.280932286621D0,                      7P      5
-7.59039956158035D0,0.0D0,143.146957690406D0;                          7P      6
504,8,13,11,1,11,1,19,11,2,11,2,37,11,3,11,3,53,11,4,11,4,69,11,       9P      7
5,11,5,73,11,6,11,6,89,11,7,11,7,105,11,8,11,8;                        9P      8
502,8,-16.1746824526945D0,1.53080849893419D-15,                       11P      9
183.01537180436D0,2.78684177437183D0,1.53080849893419D-15,            11P     10
150.173048454133D0,12.5D0,1.53080849893419D-15,                       11P     11
113.923048454133D0,12.5D0,1.53080849893419D-15,0.0D0,                 11P     12
-14.8756443470178D0,1.7145055188063D-15,183.76537180436D0,            11P     13
4.08587988004848D0,1.7145055188063D-15,150.923048454133D0,            11P     14
14.0D0,1.7145055188063D-15,113.923048454133D0,14.0D0,                 11P     15
1.7145055188063D-15,0.0D0;                                            11P     16
100,0.0D0,0.0D0,0.0D0,-12.5D0,1.53080849893419D-15,-12.5D0,           13P     17
1.53080849893419D-15;                                                 13P     18
124,-.866025403784439D0,0.0D0,.499999999999999D0,-27.0D0,0.0D0,       15P     19
1.0D0,0.0D0,0.0D0,-.499999999999999D0,0.0D0,-.866025403784439D0,      15P     20
176.76537180436D0;                                                    15P     21
508,1,0,9,1,0,0;                                                      17P     22
100,0.0D0,0.0D0,0.0D0,-12.5D0,1.53080849893419D-15,-12.5D0,           19P     23
1.53080849893419D-15;                                                 19P     24
124,-.866025403784439D0,0.0D0,.499999999999999D0,                     21P     25
-8.03847577293366D0,0.0D0,1.0D0,0.0D0,0.0D0,-.499999999999999D0,      21P     26
0.0D0,-.866025403784439D0,143.923048454133D0;                         21P     27
508,1,0,9,2,1,0;                                                      23P     28
510,3,2,1,17,23;                                                      25P     29
120,33,29,0.0D0,6.28318530717959D0;                                   27P     30
100,0.0D0,0.0D0,0.0D0,12.5D0,0.0D0,12.5D0,0.0D0;                      29P     31
124,0.0D0,0.0D0,1.0D0,-60.0D0,0.0D0,1.0D0,0.0D0,                      31P     32
-7.65404249467096D-16,-1.0D0,0.0D0,0.0D0,53.9230484541327D0;          31P     33
110,-60.0D0,0.0D0,113.923048454133D0,-60.0D0,1.0D0,                   33P     34
113.923048454133D0;                                                   33P     35
508,1,0,9,2,0,0;                                                      35P     36
100,0.0D0,0.0D0,0.0D0,-12.5D0,1.53080849893419D-15,-12.5D0,           37P     37
1.53080849893419D-15;                                                 37P     38
124,-1.0D0,0.0D0,0.0D0,1.0369201011335D-15,0.0D0,1.0D0,0.0D0,         39P     39
0.0D0,0.0D0,0.0D0,-1.0D0,113.923048454133D0;                          39P     40
508,1,0,9,3,1,0;                                                      41P     41
510,27,2,1,35,41;                                                     43P     42
120,49,47,0.0D0,6.28318530717959D0;                                   45P     43
110,-12.5D0,0.0D0,-5.69615242270663D0,-12.5D0,0.0D0,                  47P     44
119.619200876839D0;                                                   47P     45
110,0.0D0,0.0D0,-5.69615242270663D0,0.0D0,0.0D0,                      49P     46
-4.69615242270663D0;                                                  49P     47
508,1,0,9,3,0,0;                                                      51P     48
100,0.0D0,0.0D0,0.0D0,-12.5D0,1.53080849893419D-15,-12.5D0,           53P     49
1.53080849893419D-15;                                                 53P     50
124,-1.0D0,0.0D0,0.0D0,0.0D0,0.0D0,-1.0D0,0.0D0,0.0D0,0.0D0,          55P     51
0.0D0,1.0D0,0.0D0;                                                    55P     52
508,1,0,9,4,0,0;                                                      57P     53
510,45,2,1,51,57;                                                     59P     54
116,-8.03847577293366D0,0.0D0,143.923048454133D0,0;                   61P     55
123,-.499999999999999D0,0.0D0,.866025403784439D0;                     63P     56
192,61,63,14.0D0,67;                                                  65P     57
123,-.866025403784439D0,0.0D0,-.499999999999999D0;                    67P     58
100,0.0D0,0.0D0,0.0D0,-14.0D0,1.7145055188063D-15,-14.0D0,            69P     59
1.7145055188063D-15;                                                  69P     60
508,1,0,9,5,1,0;                                                      71P     61
100,0.0D0,0.0D0,0.0D0,-14.0D0,1.7145055188063D-15,-14.0D0,            73P     62
1.7145055188063D-15;                                                  73P     63
508,1,0,9,6,0,0;                                                      75P     64
510,65,2,1,71,75;                                                     77P     65
116,-60.0D0,0.0D0,113.923048454133D0,0;                               79P     66
123,0.0D0,-1.0D0,0.0D0;                                               81P     67
198,79,81,60.0D0,14.0D0,85;                                           83P     68
123,0.0D0,0.0D0,-1.0D0;                                               85P     69
508,1,0,9,6,1,0;                                                      87P     70
100,0.0D0,0.0D0,0.0D0,-14.0D0,1.7145055188063D-15,-14.0D0,            89P     71
1.7145055188063D-15;                                                  89P     72
508,1,0,9,7,0,0;                                                      91P     73
510,83,2,1,87,91;                                                     93P     74
116,0.0D0,0.0D0,0.0D0,0;                                              95P     75
123,9.10193428989028D-18,0.0D0,1.0D0;                                 97P     76
192,95,97,14.0D0,101;                                                 99P     77
123,-1.0D0,0.0D0,0.0D0;                                              101P     78
508,1,0,9,7,1,0;                                                     103P     79
100,0.0D0,0.0D0,0.0D0,-14.0D0,1.7145055188063D-15,-14.0D0,           105P     80
1.7145055188063D-15;                                                 105P     81
124,-1.0D0,0.0D0,0.0D0,0.0D0,0.0D0,1.0D0,0.0D0,0.0D0,0.0D0,          107P     82
0.0D0,-1.0D0,0.0D0;                                                  107P     83
508,1,0,9,8,0,0;                                                     109P     84
510,99,2,1,103,109;                                                  111P     85
116,-27.0D0,0.0D0,176.76537180436D0,0;                               113P     86
123,-.499999999999999D0,0.0D0,.866025403784439D0;                    115P     87
190,113,115,119;                                                     117P     88
123,.866025403784439D0,0.0D0,.499999999999999D0;                     119P     89
508,1,0,9,5,0,0;                                                     121P     90
508,1,0,9,1,1,0;                                                     123P     91
510,117,2,1,121,123;                                                 125P     92
116,0.0D0,0.0D0,0.0D0,0;                                             127P     93
123,0.0D0,0.0D0,-1.0D0;                                              129P     94
190,127,129,133;                                                     131P     95
123,-1.0D0,0.0D0,0.0D0;                                              133P     96
508,1,0,9,8,1,0;                                                     135P     97
508,1,0,9,4,1,0;                                                     137P     98
510,131,2,1,135,137;                                                 139P     99
514,8,25,1,43,1,59,1,77,1,93,1,111,1,125,1,139,1;                    141P    100
186,141,1,0;                                                         143P    101
314,75.2941012382507D0,75.2941012382507D0,75.2941012382507D0,;       145P    102
S      1G      3D    146P    102                                        T      1
