                                                                        S      1
,,5HS72AG,27HNo Iges File Name specified,22HAutodesk Inventor 2012,37HAuG      1
toDesk Inventor Iges Exporter R2012,32,38,6,99,15,5HS72AG,1.0D0,2,2HMM, G      2
1,.08D0,15H20130604.110403,.01D0,10000.0D0,6Haporro,,11,0,,;            G      3
     406       1       0       0       1       0       0       000000000D      1
     406       0       0       1       3                               0D      2
     120       2       0       0       0       0       0       000010000D      3
     120       0       0       1       0                               0D      4
     110       3       0       0       0       0       0       000010000D      5
     110       0       0       2       0                               0D      6
     110       5       0       0       0       0       0       001010000D      7
     110       0       0       2       0                               0D      8
     504       7       0       0       0       0       0       000010001D      9
     504       0       0       2       1                               0D     10
     502       9       0       0       0       0       0       000010000D     11
     502       0       0       8       1                               0D     12
     100      17       0       0       0       0      15       000010000D     13
     100       0       0       2       0                               0D     14
     124      19       0       0       0       0       0       000000000D     15
     124       0       0       2       0                               0D     16
     508      21       0       0       0       0       0       000010000D     17
     508       0       0       1       1                               0D     18
     100      22       0       0       0       0      21       000010000D     19
     100       0       0       2       0                               0D     20
     124      24       0       0       0       0       0       000000000D     21
     124       0       0       2       0                               0D     22
     508      26       0       0       0       0       0       000010000D     23
     508       0       0       1       1                               0D     24
     510      27       0       0       0       0       0       000010000D     25
     510       0    -147       1       1                               0D     26
     120      28       0       0       0       0       0       000010000D     27
     120       0       0       1       0                               0D     28
     100      29       0       0       0       0      31       000010000D     29
     100       0       0       1       0                               0D     30
     124      30       0       0       0       0       0       000000000D     31
     124       0       0       2       0                               0D     32
     110      32       0       0       0       0       0       001010000D     33
     110       0       0       2       0                               0D     34
     508      34       0       0       0       0       0       000010000D     35
     508       0       0       1       1                               0D     36
     100      35       0       0       0       0      39       000010000D     37
     100       0       0       2       0                               0D     38
     124      37       0       0       0       0       0       000000000D     39
     124       0       0       2       0                               0D     40
     508      39       0       0       0       0       0       000010000D     41
     508       0       0       1       1                               0D     42
     510      40       0       0       0       0       0       000010000D     43
     510       0    -147       1       1                               0D     44
     120      41       0       0       0       0       0       000010000D     45
     120       0       0       1       0                               0D     46
     110      42       0       0       0       0       0       000010000D     47
     110       0       0       2       0                               0D     48
     110      44       0       0       0       0       0       001010000D     49
     110       0       0       2       0                               0D     50
     508      46       0       0       0       0       0       000010000D     51
     508       0       0       1       1                               0D     52
     100      47       0       0       0       0      55       000010000D     53
     100       0       0       2       0                               0D     54
     124      49       0       0       0       0       0       000000000D     55
     124       0       0       2       0                               0D     56
     508      51       0       0       0       0       0       000010000D     57
     508       0       0       1       1                               0D     58
     510      52       0       0       0       0       0       000010000D     59
     510       0    -147       1       1                               0D     60
     116      53       0       0       0       0       0       000010000D     61
     116       0       0       1       0                               0D     62
     123      54       0       0       0       0       0       000010200D     63
     123       0       0       1       0                               0D     64
     192      55       0       0       0       0       0       000010000D     65
     192       0       0       1       1                               0D     66
     123      56       0       0       0       0       0       000010200D     67
     123       0       0       1       0                               0D     68
     100      57       0       0       0       0      71       000010000D     69
     100       0       0       2       0                               0D     70
     124      59       0       0       0       0       0       000000000D     71
     124       0       0       2       0                               0D     72
     508      61       0       0       0       0       0       000010000D     73
     508       0       0       1       1                               0D     74
     100      62       0       0       0       0      21       000010000D     75
     100       0       0       2       0                               0D     76
     508      64       0       0       0       0       0       000010000D     77
     508       0       0       1       1                               0D     78
     510      65       0       0       0       0       0       000010000D     79
     510       0    -147       1       1                               0D     80
     116      66       0       0       0       0       0       000010000D     81
     116       0       0       1       0                               0D     82
     123      67       0       0       0       0       0       000010200D     83
     123       0       0       1       0                               0D     84
     198      68       0       0       0       0       0       000010000D     85
     198       0       0       1       1                               0D     86
     123      69       0       0       0       0       0       000010200D     87
     123       0       0       1       0                               0D     88
     508      70       0       0       0       0       0       000010000D     89
     508       0       0       1       1                               0D     90
     100      71       0       0       0       0      39       000010000D     91
     100       0       0       2       0                               0D     92
     508      73       0       0       0       0       0       000010000D     93
     508       0       0       1       1                               0D     94
     510      74       0       0       0       0       0       000010000D     95
     510       0    -147       1       1                               0D     96
     116      75       0       0       0       0       0       000010000D     97
     116       0       0       1       0                               0D     98
     123      76       0       0       0       0       0       000010200D     99
     123       0       0       1       0                               0D    100
     192      77       0       0       0       0       0       000010000D    101
     192       0       0       1       1                               0D    102
     123      78       0       0       0       0       0       000010200D    103
     123       0       0       1       0                               0D    104
     508      79       0       0       0       0       0       000010000D    105
     508       0       0       1       1                               0D    106
     100      80       0       0       0       0     109       000010000D    107
     100       0       0       2       0                               0D    108
     124      82       0       0       0       0       0       000000000D    109
     124       0       0       2       0                               0D    110
     508      84       0       0       0       0       0       000010000D    111
     508       0       0       1       1                               0D    112
     510      85       0       0       0       0       0       000010000D    113
     510       0    -147       1       1                               0D    114
     116      86       0       0       0       0       0       000010000D    115
     116       0       0       1       0                               0D    116
     123      87       0       0       0       0       0       000010200D    117
     123       0       0       1       0                               0D    118
     190      88       0       0       0       0       0       000010000D    119
     190       0       0       1       1                               0D    120
     123      89       0       0       0       0       0       000010200D    121
     123       0       0       1       0                               0D    122
     508      90       0       0       0       0       0       000010000D    123
     508       0       0       1       1                               0D    124
     508      91       0       0       0       0       0       000010000D    125
     508       0       0       1       1                               0D    126
     510      92       0       0       0       0       0       000010000D    127
     510       0    -147       1       1                               0D    128
     116      93       0       0       0       0       0       000010000D    129
     116       0       0       1       0                               0D    130
     123      94       0       0       0       0       0       000010200D    131
     123       0       0       1       0                               0D    132
     190      95       0       0       0       0       0       000010000D    133
     190       0       0       1       1                               0D    134
     123      96       0       0       0       0       0       000010200D    135
     123       0       0       1       0                               0D    136
     508      97       0       0       0       0       0       000010000D    137
     508       0       0       1       1                               0D    138
     508      98       0       0       0       0       0       000010000D    139
     508       0       0       1       1                               0D    140
     510      99       0       0       0       0       0       000010000D    141
     510       0    -147       1       1                               0D    142
     514     100       0       0       0       0       0       000010000D    143
     514       0       0       1       1                               0D    144
     186     101       0       0       1       0       0       000000000D    145
     186       0       0       1       0                 Solido1       0D    146
     314     102       0       0       0       0       0       000000000D    147
     314       0       8       1       0                               0D    148
406,2,0,5HS72AG;                                                       1P      1
120,7,5,0.0D0,6.28318530717959D0;                                      3P      2
110,-31.9765717108885D0,0.0D0,225.986473670975D0,                      5P      3
-98.4919940713397D0,0.0D0,264.389170676043D0;                          5P      4
110,-23.9765717108885D0,0.0D0,239.842880131526D0,                      7P      5
-24.842597114673D0,0.0D0,240.342880131526D0;                           7P      6
504,8,13,11,1,11,1,19,11,2,11,2,37,11,3,11,3,53,11,4,11,4,69,11,       9P      7
5,11,5,75,11,6,11,6,91,11,7,11,7,107,11,8,11,8;                        9P      8
502,8,-79.4685657822283D0,1.95943487863577D-15,                       11P      9
290.356406460551D0,-19.0D0,1.95943487863577D-15,                      11P     10
255.444863728671D0,16.0D0,1.95943487863577D-15,                       11P     11
194.82308546376D0,16.0D0,1.95943487863577D-15,0.0D0,                  11P     12
-78.7185657822283D0,2.14313189850787D-15,291.655444566228D0,          11P     13
-18.25D0,2.14313189850787D-15,256.743901834348D0,17.5D0,              11P     14
2.14313189850787D-15,194.82308546376D0,17.5D0,                        11P     15
2.14313189850787D-15,0.0D0;                                           11P     16
100,0.0D0,0.0D0,0.0D0,-16.0D0,1.95943487863577D-15,-16.0D0,           13P     17
1.95943487863577D-15;                                                 13P     18
124,-.5D0,0.0D0,.866025403784439D0,-87.4685657822283D0,0.0D0,         15P     19
1.0D0,0.0D0,0.0D0,-.866025403784439D0,0.0D0,-.5D0,276.5D0;            15P     20
508,1,0,9,1,0,0;                                                      17P     21
100,0.0D0,0.0D0,0.0D0,-16.0D0,1.95943487863577D-15,-16.0D0,           19P     22
1.95943487863577D-15;                                                 19P     23
124,-.5D0,0.0D0,.866025403784439D0,-27.0D0,0.0D0,1.0D0,0.0D0,         21P     24
0.0D0,-.866025403784439D0,0.0D0,-.5D0,241.58845726812D0;              21P     25
508,1,0,9,2,1,0;                                                      23P     26
510,3,2,1,17,23;                                                      25P     27
120,33,29,0.0D0,6.28318530717959D0;                                   27P     28
100,0.0D0,0.0D0,0.0D0,16.0D0,0.0D0,16.0D0,0.0D0;                      29P     29
124,0.0D0,0.0D0,1.0D0,-54.0D0,0.0D0,1.0D0,0.0D0,                      31P     30
-9.79717439317883D-16,-1.0D0,0.0D0,0.0D0,140.82308546376D0;           31P     31
110,-54.0D0,0.0D0,194.82308546376D0,-54.0D0,1.0D0,                    33P     32
194.82308546376D0;                                                    33P     33
508,1,0,9,2,0,0;                                                      35P     34
100,0.0D0,0.0D0,0.0D0,-16.0D0,1.95943487863577D-15,-16.0D0,           37P     35
1.95943487863577D-15;                                                 37P     36
124,-1.0D0,0.0D0,0.0D0,0.0D0,0.0D0,1.0D0,0.0D0,0.0D0,0.0D0,           39P     37
0.0D0,-1.0D0,194.82308546376D0;                                       39P     38
508,1,0,9,3,1,0;                                                      41P     39
510,27,2,1,35,41;                                                     43P     40
120,49,47,0.0D0,6.28318530717959D0;                                   45P     41
110,-16.0D0,0.0D0,-9.74115427318801D0,-16.0D0,0.0D0,                  47P     42
204.564239736948D0;                                                   47P     43
110,0.0D0,0.0D0,-9.74115427318801D0,0.0D0,0.0D0,                      49P     44
-8.74115427318801D0;                                                  49P     45
508,1,0,9,3,0,0;                                                      51P     46
100,0.0D0,0.0D0,0.0D0,-16.0D0,1.95943487863577D-15,-16.0D0,           53P     47
1.95943487863577D-15;                                                 53P     48
124,-1.0D0,0.0D0,0.0D0,0.0D0,0.0D0,-1.0D0,0.0D0,0.0D0,0.0D0,          55P     49
0.0D0,1.0D0,0.0D0;                                                    55P     50
508,1,0,9,4,0,0;                                                      57P     51
510,45,2,1,51,57;                                                     59P     52
116,-27.0D0,0.0D0,241.58845726812D0,0;                                61P     53
123,-.866025403784439D0,0.0D0,.5D0;                                   63P     54
192,61,63,17.5D0,67;                                                  65P     55
123,-.5D0,0.0D0,-.866025403784439D0;                                  67P     56
100,0.0D0,0.0D0,0.0D0,-17.5D0,2.14313189850787D-15,-17.5D0,           69P     57
2.14313189850787D-15;                                                 69P     58
124,-.5D0,0.0D0,.866025403784439D0,-87.4685657822283D0,0.0D0,         71P     59
1.0D0,0.0D0,0.0D0,-.866025403784439D0,0.0D0,-.5D0,276.5D0;            71P     60
508,1,0,9,5,1,0;                                                      73P     61
100,0.0D0,0.0D0,0.0D0,-17.5D0,2.14313189850787D-15,-17.5D0,           75P     62
2.14313189850787D-15;                                                 75P     63
508,1,0,9,6,0,0;                                                      77P     64
510,65,2,1,73,77;                                                     79P     65
116,-54.0D0,0.0D0,194.82308546376D0,0;                                81P     66
123,0.0D0,-1.0D0,0.0D0;                                               83P     67
198,81,83,54.0D0,17.5D0,87;                                           85P     68
123,0.0D0,0.0D0,-1.0D0;                                               87P     69
508,1,0,9,6,1,0;                                                      89P     70
100,0.0D0,0.0D0,0.0D0,-17.5D0,2.14313189850787D-15,-17.5D0,           91P     71
2.14313189850787D-15;                                                 91P     72
508,1,0,9,7,0,0;                                                      93P     73
510,85,2,1,89,93;                                                     95P     74
116,0.0D0,0.0D0,0.0D0,0;                                              97P     75
123,0.0D0,0.0D0,1.0D0;                                                99P     76
192,97,99,17.5D0,103;                                                101P     77
123,-1.0D0,0.0D0,0.0D0;                                              103P     78
508,1,0,9,7,1,0;                                                     105P     79
100,0.0D0,0.0D0,0.0D0,-17.5D0,2.14313189850787D-15,-17.5D0,          107P     80
2.14313189850787D-15;                                                107P     81
124,-1.0D0,0.0D0,0.0D0,0.0D0,0.0D0,1.0D0,0.0D0,0.0D0,0.0D0,          109P     82
0.0D0,-1.0D0,0.0D0;                                                  109P     83
508,1,0,9,8,0,0;                                                     111P     84
510,101,2,1,105,111;                                                 113P     85
116,-87.4685657822283D0,0.0D0,276.5D0,0;                             115P     86
123,-.866025403784439D0,0.0D0,.5D0;                                  117P     87
190,115,117,121;                                                     119P     88
123,.5D0,0.0D0,.866025403784439D0;                                   121P     89
508,1,0,9,5,0,0;                                                     123P     90
508,1,0,9,1,1,0;                                                     125P     91
510,119,2,1,123,125;                                                 127P     92
116,0.0D0,0.0D0,0.0D0,0;                                             129P     93
123,0.0D0,0.0D0,-1.0D0;                                              131P     94
190,129,131,135;                                                     133P     95
123,-1.0D0,0.0D0,0.0D0;                                              135P     96
508,1,0,9,8,1,0;                                                     137P     97
508,1,0,9,4,1,0;                                                     139P     98
510,133,2,1,137,139;                                                 141P     99
514,8,25,1,43,1,59,1,79,1,95,1,113,1,127,1,141,1;                    143P    100
186,143,1,0;                                                         145P    101
314,75.2941012382507D0,75.2941012382507D0,75.2941012382507D0,;       147P    102
S      1G      3D    148P    102                                        T      1
