                                                                        S      1
,,10H000874.ipt,27HNo Iges File Name specified,22HAutodesk Inventor 2012G      1
,37HAutoDesk Inventor Iges Exporter R2012,32,38,6,99,15,10H000874.ipt,  G      2
1.0D0,2,2HMM,1,.08D0,15H20160219.154318,.01D0,10000.0D0,9Hamaurizio,,11,G      3
0,,;                                                                    G      4
     406       1       0       0       1       0       0       000000000D      1
     406       0       0       1       3                               0D      2
     120       2       0       0       0       0       0       000010000D      3
     120       0       0       1       0                               0D      4
     110       3       0       0       0       0       0       000010000D      5
     110       0       0       2       0                               0D      6
     110       5       0       0       0       0       0       001010000D      7
     110       0       0       2       0                               0D      8
     504       7       0       0       0       0       0       000010001D      9
     504       0       0       3       1                               0D     10
     502      10       0       0       0       0       0       000010000D     11
     502       0       0       9       1                               0D     12
     100      19       0       0       0       0      15       000010000D     13
     100       0       0       2       0                               0D     14
     124      21       0       0       0       0       0       000000000D     15
     124       0       0       3       0                               0D     16
     508      24       0       0       0       0       0       000010000D     17
     508       0       0       1       1                               0D     18
     100      25       0       0       0       0      21       000010000D     19
     100       0       0       2       0                               0D     20
     124      27       0       0       0       0       0       000000000D     21
     124       0       0       3       0                               0D     22
     508      30       0       0       0       0       0       000010000D     23
     508       0       0       1       1                               0D     24
     510      31       0       0       0       0       0       000010000D     25
     510       0    -209       1       1                               0D     26
     120      32       0       0       0       0       0       000010000D     27
     120       0       0       1       0                               0D     28
     100      33       0       0       0       0      31       000010000D     29
     100       0       0       1       0                               0D     30
     124      34       0       0       0       0       0       000000000D     31
     124       0       0       2       0                               0D     32
     110      36       0       0       0       0       0       001010000D     33
     110       0       0       2       0                               0D     34
     508      38       0       0       0       0       0       000010000D     35
     508       0       0       1       1                               0D     36
     100      39       0       0       0       0      39       000010000D     37
     100       0       0       2       0                               0D     38
     124      41       0       0       0       0       0       000000000D     39
     124       0       0       3       0                               0D     40
     508      44       0       0       0       0       0       000010000D     41
     508       0       0       1       1                               0D     42
     510      45       0       0       0       0       0       000010000D     43
     510       0    -209       1       1                               0D     44
     120      46       0       0       0       0       0       000010000D     45
     120       0       0       1       0                               0D     46
     110      47       0       0       0       0       0       000010000D     47
     110       0       0       2       0                               0D     48
     110      49       0       0       0       0       0       001010000D     49
     110       0       0       2       0                               0D     50
     508      51       0       0       0       0       0       000010000D     51
     508       0       0       1       1                               0D     52
     100      52       0       0       0       0      55       000010000D     53
     100       0       0       2       0                               0D     54
     124      54       0       0       0       0       0       000000000D     55
     124       0       0       3       0                               0D     56
     508      57       0       0       0       0       0       000010000D     57
     508       0       0       1       1                               0D     58
     510      58       0       0       0       0       0       000010000D     59
     510       0    -209       1       1                               0D     60
     120      59       0       0       0       0       0       000010000D     61
     120       0       0       1       0                               0D     62
     100      60       0       0       0       0      65       000010000D     63
     100       0       0       1       0                               0D     64
     124      61       0       0       0       0       0       000000000D     65
     124       0       0       2       0                               0D     66
     110      63       0       0       0       0       0       001010000D     67
     110       0       0       1       0                               0D     68
     508      64       0       0       0       0       0       000010000D     69
     508       0       0       1       1                               0D     70
     100      65       0       0       0       0      73       000010000D     71
     100       0       0       2       0                               0D     72
     124      67       0       0       0       0       0       000000000D     73
     124       0       0       2       0                               0D     74
     508      69       0       0       0       0       0       000010000D     75
     508       0       0       1       1                               0D     76
     510      70       0       0       0       0       0       000010000D     77
     510       0    -209       1       1                               0D     78
     120      71       0       0       0       0       0       000010000D     79
     120       0       0       1       0                               0D     80
     110      72       0       0       0       0       0       000010000D     81
     110       0       0       1       0                               0D     82
     110      73       0       0       0       0       0       001010000D     83
     110       0       0       1       0                               0D     84
     508      74       0       0       0       0       0       000010000D     85
     508       0       0       1       1                               0D     86
     100      75       0       0       0       0      89       000010000D     87
     100       0       0       2       0                               0D     88
     124      77       0       0       0       0       0       000000000D     89
     124       0       0       2       0                               0D     90
     508      79       0       0       0       0       0       000010000D     91
     508       0       0       1       1                               0D     92
     510      80       0       0       0       0       0       000010000D     93
     510       0    -209       1       1                               0D     94
     116      81       0       0       0       0       0       000010000D     95
     116       0       0       1       0                               0D     96
     123      82       0       0       0       0       0       000010200D     97
     123       0       0       1       0                               0D     98
     192      83       0       0       0       0       0       000010000D     99
     192       0       0       1       1                               0D    100
     123      84       0       0       0       0       0       000010200D    101
     123       0       0       1       0                               0D    102
     100      85       0       0       0       0      15       000010000D    103
     100       0       0       2       0                               0D    104
     508      87       0       0       0       0       0       000010000D    105
     508       0       0       1       1                               0D    106
     100      88       0       0       0       0      21       000010000D    107
     100       0       0       2       0                               0D    108
     508      90       0       0       0       0       0       000010000D    109
     508       0       0       1       1                               0D    110
     510      91       0       0       0       0       0       000010000D    111
     510       0    -209       1       1                               0D    112
     116      92       0       0       0       0       0       000010000D    113
     116       0       0       1       0                               0D    114
     123      93       0       0       0       0       0       000010200D    115
     123       0       0       1       0                               0D    116
     198      94       0       0       0       0       0       000010000D    117
     198       0       0       1       1                               0D    118
     123      95       0       0       0       0       0       000010200D    119
     123       0       0       1       0                               0D    120
     508      96       0       0       0       0       0       000010000D    121
     508       0       0       1       1                               0D    122
     100      97       0       0       0       0      39       000010000D    123
     100       0       0       2       0                               0D    124
     508      99       0       0       0       0       0       000010000D    125
     508       0       0       1       1                               0D    126
     510     100       0       0       0       0       0       000010000D    127
     510       0    -209       1       1                               0D    128
     116     101       0       0       0       0       0       000010000D    129
     116       0       0       1       0                               0D    130
     123     102       0       0       0       0       0       000010200D    131
     123       0       0       1       0                               0D    132
     192     103       0       0       0       0       0       000010000D    133
     192       0       0       1       1                               0D    134
     123     104       0       0       0       0       0       000010200D    135
     123       0       0       1       0                               0D    136
     508     105       0       0       0       0       0       000010000D    137
     508       0       0       1       1                               0D    138
     100     106       0       0       0       0      55       000010000D    139
     100       0       0       2       0                               0D    140
     508     108       0       0       0       0       0       000010000D    141
     508       0       0       1       1                               0D    142
     510     109       0       0       0       0       0       000010000D    143
     510       0    -209       1       1                               0D    144
     116     110       0       0       0       0       0       000010000D    145
     116       0       0       1       0                               0D    146
     123     111       0       0       0       0       0       000010200D    147
     123       0       0       1       0                               0D    148
     198     112       0       0       0       0       0       000010000D    149
     198       0       0       1       1                               0D    150
     123     113       0       0       0       0       0       000010200D    151
     123       0       0       1       0                               0D    152
     508     114       0       0       0       0       0       000010000D    153
     508       0       0       1       1                               0D    154
     100     115       0       0       0       0      73       000010000D    155
     100       0       0       2       0                               0D    156
     508     117       0       0       0       0       0       000010000D    157
     508       0       0       1       1                               0D    158
     510     118       0       0       0       0       0       000010000D    159
     510       0    -209       1       1                               0D    160
     116     119       0       0       0       0       0       000010000D    161
     116       0       0       1       0                               0D    162
     123     120       0       0       0       0       0       000010200D    163
     123       0       0       1       0                               0D    164
     192     121       0       0       0       0       0       000010000D    165
     192       0       0       1       1                               0D    166
     123     122       0       0       0       0       0       000010200D    167
     123       0       0       1       0                               0D    168
     508     123       0       0       0       0       0       000010000D    169
     508       0       0       1       1                               0D    170
     100     124       0       0       0       0      89       000010000D    171
     100       0       0       2       0                               0D    172
     508     126       0       0       0       0       0       000010000D    173
     508       0       0       1       1                               0D    174
     510     127       0       0       0       0       0       000010000D    175
     510       0    -209       1       1                               0D    176
     116     128       0       0       0       0       0       000010000D    177
     116       0       0       1       0                               0D    178
     123     129       0       0       0       0       0       000010200D    179
     123       0       0       1       0                               0D    180
     190     130       0       0       0       0       0       000010000D    181
     190       0       0       1       1                               0D    182
     123     131       0       0       0       0       0       000010200D    183
     123       0       0       1       0                               0D    184
     508     132       0       0       0       0       0       000010000D    185
     508       0       0       1       1                               0D    186
     508     133       0       0       0       0       0       000010000D    187
     508       0       0       1       1                               0D    188
     510     134       0       0       0       0       0       000010000D    189
     510       0    -209       1       1                               0D    190
     116     135       0       0       0       0       0       000010000D    191
     116       0       0       1       0                               0D    192
     123     136       0       0       0       0       0       000010200D    193
     123       0       0       1       0                               0D    194
     190     137       0       0       0       0       0       000010000D    195
     190       0       0       1       1                               0D    196
     123     138       0       0       0       0       0       000010200D    197
     123       0       0       1       0                               0D    198
     508     139       0       0       0       0       0       000010000D    199
     508       0       0       1       1                               0D    200
     508     140       0       0       0       0       0       000010000D    201
     508       0       0       1       1                               0D    202
     510     141       0       0       0       0       0       000010000D    203
     510       0    -209       1       1                               0D    204
     514     142       0       0       0       0       0       000010000D    205
     514       0       0       2       1                               0D    206
     186     144       0       0       1       0       0       000000000D    207
     186       0       0       1       0                 Solido1       0D    208
     314     145       0       0       0       0       0       000000000D    209
     314       0       8       1       0                               0D    210
406,2,0,6H000874;                                                      1P      1
120,7,5,0.0D0,6.28318530717959D0;                                      3P      2
110,-7.5D0,34.9148463395574D0,-128.966708214389D0,-7.5D0,              5P      3
10.861738589326D0,-156.153800879029D0;                                 5P      4
110,0.0D0,34.9148463395574D0,-128.966708214389D0,0.0D0,                7P      5
34.2522262913416D0,-129.715663935178D0;                                7P      6
504,12,13,11,1,11,1,19,11,2,11,2,37,11,3,11,3,53,11,4,11,4,71,         9P      7
11,5,11,5,87,11,6,11,6,103,11,7,11,7,107,11,8,11,8,123,11,9,11,        9P      8
9,139,11,10,11,10,155,11,11,11,11,171,11,12,11,12;                     9P      9
502,12,7.5D0,11.955061668882D0,-154.918023939727D0,7.5D0,             11P     10
33.8215232600014D0,-130.20248515369D0,7.5D0,34.9993585222208D0,       11P     11
-85.2227711838229D0,7.5D0,7.60871451016552D0,                         11P     12
-50.7880122823167D0,7.5D0,9.18485099360515D-16,-29.0D0,7.5D0,         11P     13
9.18485099360515D-16,0.0D0,9.0D0,11.955061668882D0,                   11P     14
-154.918023939727D0,9.0D0,33.8215232600014D0,-130.20248515369D0,      11P     15
9.0D0,34.9993585222208D0,-85.2227711838229D0,9.0D0,                   11P     16
7.60871451016552D0,-50.7880122823167D0,9.0D0,                         11P     17
1.10218211923262D-15,-29.0D0,9.0D0,1.10218211923262D-15,0.0D0;        11P     18
100,0.0D0,0.0D0,0.0D0,-7.5D0,-1.57348602700168D-14,-7.5D0,            13P     19
-1.57348602700168D-14;                                                13P     20
124,-1.0D0,0.0D0,0.0D0,0.0D0,0.0D0,-.748955720789002D0,               15P     21
.662620048215738D0,11.955061668882D0,0.0D0,.662620048215738D0,        15P     22
.748955720789002D0,-154.918023939727D0;                               15P     23
508,1,0,9,1,0,0;                                                      17P     24
100,0.0D0,0.0D0,0.0D0,-7.5D0,-1.57348602700168D-14,-7.5D0,            19P     25
-1.57348602700168D-14;                                                19P     26
124,-1.0D0,0.0D0,0.0D0,0.0D0,0.0D0,-.748955720789002D0,               21P     27
.662620048215737D0,33.8215232600014D0,0.0D0,.662620048215737D0,       21P     28
.748955720789002D0,-130.20248515369D0;                                21P     29
508,1,0,9,2,1,0;                                                      23P     30
510,3,2,1,17,23;                                                      25P     31
120,33,29,0.0D0,6.28318530717959D0;                                   27P     32
100,0.0D0,0.0D0,0.0D0,7.5D0,0.0D0,7.5D0,0.0D0;                        29P     33
124,0.0D0,1.0D0,0.0D0,-4.59242549680257D-16,0.0D0,0.0D0,1.0D0,        31P     34
7.60807303238628D0,1.0D0,0.0D0,0.0D0,-72.0107834661396D0;             31P     35
110,0.0D0,7.60807303238628D0,-107.01078346614D0,1.0D0,                33P     36
7.60807303238628D0,-107.01078346614D0;                                33P     37
508,1,0,9,2,0,0;                                                      35P     38
100,0.0D0,0.0D0,0.0D0,-7.5D0,1.75718304687379D-14,-7.5D0,             37P     39
1.75718304687379D-14;                                                 37P     40
124,-1.0D0,0.0D0,0.0D0,0.0D0,0.0D0,-.782608156852414D0,               39P     41
-.62251463663762D0,34.9993585222208D0,0.0D0,-.62251463663762D0,       39P     42
.782608156852414D0,-85.2227711838229D0;                               39P     43
508,1,0,9,3,1,0;                                                      41P     44
510,27,2,1,35,41;                                                     43P     45
120,49,47,0.0D0,6.28318530717959D0;                                   45P     46
110,-7.5D0,6.23918230956275D0,-49.0662743372414D0,-7.5D0,             47P     47
36.3688907228235D0,-86.9445091288982D0;                               47P     48
110,0.0D0,6.23918230956275D0,-49.0662743372414D0,0.0D0,               49P     49
6.86169694620037D0,-49.8488824940938D0;                               49P     50
508,1,0,9,3,0,0;                                                      51P     51
100,0.0D0,0.0D0,0.0D0,-7.5D0,4.24915417323598D-15,-7.5D0,             53P     52
4.24915417323598D-15;                                                 53P     53
124,-1.0D0,0.0D0,0.0D0,0.0D0,0.0D0,-.782608156852414D0,               55P     54
-.62251463663762D0,7.60871451016552D0,0.0D0,-.62251463663762D0,       55P     55
.782608156852414D0,-50.7880122823167D0;                               55P     56
508,1,0,9,4,1,0;                                                      57P     57
510,45,2,1,51,57;                                                     59P     58
120,67,63,0.0D0,6.28318530717959D0;                                   61P     59
100,0.0D0,0.0D0,0.0D0,7.5D0,0.0D0,7.5D0,0.0D0;                        63P     60
124,0.0D0,-1.0D0,0.0D0,4.59242549680257D-16,0.0D0,0.0D0,1.0D0,        65P     61
35.0D0,-1.0D0,0.0D0,0.0D0,-64.0D0;                                    65P     62
110,0.0D0,35.0D0,-29.0D0,-1.0D0,35.0D0,-29.0D0;                       67P     63
508,1,0,9,4,0,0;                                                      69P     64
100,0.0D0,0.0D0,0.0D0,-7.5D0,9.18485099360515D-16,-7.5D0,             71P     65
9.18485099360515D-16;                                                 71P     66
124,-1.0D0,0.0D0,0.0D0,0.0D0,0.0D0,-1.0D0,0.0D0,0.0D0,0.0D0,          73P     67
0.0D0,1.0D0,-29.0D0;                                                  73P     68
508,1,0,9,5,1,0;                                                      75P     69
510,61,2,1,69,75;                                                     77P     70
120,83,81,0.0D0,6.28318530717959D0;                                   79P     71
110,-7.5D0,0.0D0,1.45D0,-7.5D0,0.0D0,-30.45D0;                        81P     72
110,0.0D0,0.0D0,1.45D0,0.0D0,0.0D0,.45D0;                             83P     73
508,1,0,9,5,0,0;                                                      85P     74
100,0.0D0,0.0D0,0.0D0,-7.5D0,9.18485099360515D-16,-7.5D0,             87P     75
9.18485099360515D-16;                                                 87P     76
124,-1.0D0,0.0D0,0.0D0,0.0D0,0.0D0,1.0D0,0.0D0,0.0D0,0.0D0,           89P     77
0.0D0,-1.0D0,0.0D0;                                                   89P     78
508,1,0,9,6,0,0;                                                      91P     79
510,79,2,1,85,91;                                                     93P     80
116,0.0D0,33.8215232600014D0,-130.20248515369D0,0;                    95P     81
123,0.0D0,-.662620048215738D0,-.748955720789002D0;                    97P     82
192,95,97,9.0D0,101;                                                  99P     83
123,-1.0D0,0.0D0,0.0D0;                                              101P     84
100,0.0D0,0.0D0,0.0D0,-9.0D0,-2.28786352126708D-14,-9.0D0,           103P     85
-2.28786352126708D-14;                                               103P     86
508,1,0,9,7,1,0;                                                     105P     87
100,0.0D0,0.0D0,0.0D0,-9.0D0,-1.48850294353696D-14,-9.0D0,           107P     88
-1.48850294353696D-14;                                               107P     89
508,1,0,9,8,0,0;                                                     109P     90
510,99,2,1,105,109;                                                  111P     91
116,0.0D0,7.60807303238628D0,-107.01078346614D0,0;                   113P     92
123,-1.0D0,0.0D0,0.0D0;                                              115P     93
198,113,115,35.0D0,9.0D0,119;                                        117P     94
123,0.0D0,0.0D0,1.0D0;                                               119P     95
508,1,0,9,8,1,0;                                                     121P     96
100,0.0D0,0.0D0,0.0D0,-9.0D0,1.70893936738349D-14,-9.0D0,            123P     97
1.70893936738349D-14;                                                123P     98
508,1,0,9,9,0,0;                                                     125P     99
510,117,2,1,121,125;                                                 127P    100
116,0.0D0,7.60871451016552D0,-50.7880122823167D0,0;                  129P    101
123,0.0D0,.62251463663762D0,-.782608156852414D0;                     131P    102
192,129,131,9.0D0,135;                                               133P    103
123,-1.0D0,0.0D0,0.0D0;                                              135P    104
508,1,0,9,9,1,0;                                                     137P    105
100,0.0D0,0.0D0,0.0D0,-9.0D0,5.09898500788318D-15,-9.0D0,            139P    106
5.09898500788318D-15;                                                139P    107
508,1,0,9,10,0,0;                                                    141P    108
510,133,2,1,137,141;                                                 143P    109
116,0.0D0,35.0D0,-29.0D0,0;                                          145P    110
123,1.0D0,0.0D0,0.0D0;                                               147P    111
198,145,147,35.0D0,9.0D0,151;                                        149P    112
123,0.0D0,0.0D0,-1.0D0;                                              151P    113
508,1,0,9,10,1,0;                                                    153P    114
100,0.0D0,0.0D0,0.0D0,-9.0D0,1.10218211923262D-15,-9.0D0,            155P    115
1.10218211923262D-15;                                                155P    116
508,1,0,9,11,0,0;                                                    157P    117
510,149,2,1,153,157;                                                 159P    118
116,0.0D0,0.0D0,0.0D0,0;                                             161P    119
123,0.0D0,0.0D0,-1.0D0;                                              163P    120
192,161,163,9.0D0,167;                                               165P    121
123,-1.0D0,0.0D0,0.0D0;                                              167P    122
508,1,0,9,11,1,0;                                                    169P    123
100,0.0D0,0.0D0,0.0D0,-9.0D0,1.10218211923262D-15,-9.0D0,            171P    124
1.10218211923262D-15;                                                171P    125
508,1,0,9,12,1,0;                                                    173P    126
510,165,2,1,169,173;                                                 175P    127
116,0.0D0,0.0D0,0.0D0,0;                                             177P    128
123,0.0D0,0.0D0,1.0D0;                                               179P    129
190,177,179,183;                                                     181P    130
123,1.0D0,0.0D0,0.0D0;                                               183P    131
508,1,0,9,12,0,0;                                                    185P    132
508,1,0,9,6,1,0;                                                     187P    133
510,181,2,1,185,187;                                                 189P    134
116,0.0D0,11.955061668882D0,-154.918023939727D0,0;                   191P    135
123,0.0D0,-.662620048215738D0,-.748955720789002D0;                   193P    136
190,191,193,197;                                                     195P    137
123,-1.0D0,0.0D0,0.0D0;                                              197P    138
508,1,0,9,7,0,0;                                                     199P    139
508,1,0,9,1,1,0;                                                     201P    140
510,195,2,1,199,201;                                                 203P    141
514,12,25,1,43,1,59,1,77,1,93,1,111,1,127,1,143,1,159,1,175,1,       205P    142
189,1,203,1;                                                         205P    143
186,205,1,0;                                                         207P    144
314,63.9216005802155D0,63.9216005802155D0,68.6275005340576D0,;       209P    145
S      1G      4D    210P    145                                        T      1
