                                                                        S      1
,,10H000803.ipt,27HNo Iges File Name specified,22HAutodesk Inventor 2012G      1
,37HAutoDesk Inventor Iges Exporter R2012,32,38,6,99,15,10H000803.ipt,  G      2
1.0D0,2,2HMM,1,.08D0,15H20160219.154220,.01D0,10000.0D0,9Hamaurizio,,11,G      3
0,,;                                                                    G      4
     406       1       0       0       1       0       0       000000000D      1
     406       0       0       1       3                               0D      2
     120       2       0       0       0       0       0       000010000D      3
     120       0       0       1       0                               0D      4
     110       3       0       0       0       0       0       000010000D      5
     110       0       0       2       0                               0D      6
     110       5       0       0       0       0       0       001010000D      7
     110       0       0       2       0                               0D      8
     504       7       0       0       0       0       0       000010001D      9
     504       0       0       3       1                               0D     10
     502      10       0       0       0       0       0       000010000D     11
     502       0       0      10       1                               0D     12
     100      20       0       0       0       0      15       000010000D     13
     100       0       0       2       0                               0D     14
     124      22       0       0       0       0       0       000000000D     15
     124       0       0       3       0                               0D     16
     508      25       0       0       0       0       0       000010000D     17
     508       0       0       1       1                               0D     18
     100      26       0       0       0       0      21       000010000D     19
     100       0       0       2       0                               0D     20
     124      28       0       0       0       0       0       000000000D     21
     124       0       0       3       0                               0D     22
     508      31       0       0       0       0       0       000010000D     23
     508       0       0       1       1                               0D     24
     510      32       0       0       0       0       0       000010000D     25
     510       0    -209       1       1                               0D     26
     120      33       0       0       0       0       0       000010000D     27
     120       0       0       1       0                               0D     28
     100      34       0       0       0       0      31       000010000D     29
     100       0       0       1       0                               0D     30
     124      35       0       0       0       0       0       000000000D     31
     124       0       0       2       0                               0D     32
     110      37       0       0       0       0       0       001010000D     33
     110       0       0       2       0                               0D     34
     508      39       0       0       0       0       0       000010000D     35
     508       0       0       1       1                               0D     36
     100      40       0       0       0       0      39       000010000D     37
     100       0       0       2       0                               0D     38
     124      42       0       0       0       0       0       000000000D     39
     124       0       0       3       0                               0D     40
     508      45       0       0       0       0       0       000010000D     41
     508       0       0       1       1                               0D     42
     510      46       0       0       0       0       0       000010000D     43
     510       0    -209       1       1                               0D     44
     120      47       0       0       0       0       0       000010000D     45
     120       0       0       1       0                               0D     46
     110      48       0       0       0       0       0       000010000D     47
     110       0       0       2       0                               0D     48
     110      50       0       0       0       0       0       001010000D     49
     110       0       0       2       0                               0D     50
     508      52       0       0       0       0       0       000010000D     51
     508       0       0       1       1                               0D     52
     100      53       0       0       0       0      55       000010000D     53
     100       0       0       2       0                               0D     54
     124      55       0       0       0       0       0       000000000D     55
     124       0       0       3       0                               0D     56
     508      58       0       0       0       0       0       000010000D     57
     508       0       0       1       1                               0D     58
     510      59       0       0       0       0       0       000010000D     59
     510       0    -209       1       1                               0D     60
     120      60       0       0       0       0       0       000010000D     61
     120       0       0       1       0                               0D     62
     100      61       0       0       0       0      65       000010000D     63
     100       0       0       1       0                               0D     64
     124      62       0       0       0       0       0       000000000D     65
     124       0       0       2       0                               0D     66
     110      64       0       0       0       0       0       001010000D     67
     110       0       0       1       0                               0D     68
     508      65       0       0       0       0       0       000010000D     69
     508       0       0       1       1                               0D     70
     100      66       0       0       0       0      73       000010000D     71
     100       0       0       2       0                               0D     72
     124      68       0       0       0       0       0       000000000D     73
     124       0       0       2       0                               0D     74
     508      70       0       0       0       0       0       000010000D     75
     508       0       0       1       1                               0D     76
     510      71       0       0       0       0       0       000010000D     77
     510       0    -209       1       1                               0D     78
     120      72       0       0       0       0       0       000010000D     79
     120       0       0       1       0                               0D     80
     110      73       0       0       0       0       0       000010000D     81
     110       0       0       1       0                               0D     82
     110      74       0       0       0       0       0       001010000D     83
     110       0       0       1       0                               0D     84
     508      75       0       0       0       0       0       000010000D     85
     508       0       0       1       1                               0D     86
     100      76       0       0       0       0      89       000010000D     87
     100       0       0       2       0                               0D     88
     124      78       0       0       0       0       0       000000000D     89
     124       0       0       2       0                               0D     90
     508      80       0       0       0       0       0       000010000D     91
     508       0       0       1       1                               0D     92
     510      81       0       0       0       0       0       000010000D     93
     510       0    -209       1       1                               0D     94
     116      82       0       0       0       0       0       000010000D     95
     116       0       0       1       0                               0D     96
     123      83       0       0       0       0       0       000010200D     97
     123       0       0       1       0                               0D     98
     192      84       0       0       0       0       0       000010000D     99
     192       0       0       1       1                               0D    100
     123      85       0       0       0       0       0       000010200D    101
     123       0       0       1       0                               0D    102
     100      86       0       0       0       0      15       000010000D    103
     100       0       0       2       0                               0D    104
     508      88       0       0       0       0       0       000010000D    105
     508       0       0       1       1                               0D    106
     100      89       0       0       0       0      21       000010000D    107
     100       0       0       2       0                               0D    108
     508      91       0       0       0       0       0       000010000D    109
     508       0       0       1       1                               0D    110
     510      92       0       0       0       0       0       000010000D    111
     510       0    -209       1       1                               0D    112
     116      93       0       0       0       0       0       000010000D    113
     116       0       0       1       0                               0D    114
     123      94       0       0       0       0       0       000010200D    115
     123       0       0       1       0                               0D    116
     198      95       0       0       0       0       0       000010000D    117
     198       0       0       1       1                               0D    118
     123      96       0       0       0       0       0       000010200D    119
     123       0       0       1       0                               0D    120
     508      97       0       0       0       0       0       000010000D    121
     508       0       0       1       1                               0D    122
     100      98       0       0       0       0      39       000010000D    123
     100       0       0       2       0                               0D    124
     508     100       0       0       0       0       0       000010000D    125
     508       0       0       1       1                               0D    126
     510     101       0       0       0       0       0       000010000D    127
     510       0    -209       1       1                               0D    128
     116     102       0       0       0       0       0       000010000D    129
     116       0       0       1       0                               0D    130
     123     103       0       0       0       0       0       000010200D    131
     123       0       0       1       0                               0D    132
     192     104       0       0       0       0       0       000010000D    133
     192       0       0       1       1                               0D    134
     123     105       0       0       0       0       0       000010200D    135
     123       0       0       1       0                               0D    136
     508     106       0       0       0       0       0       000010000D    137
     508       0       0       1       1                               0D    138
     100     107       0       0       0       0      55       000010000D    139
     100       0       0       2       0                               0D    140
     508     109       0       0       0       0       0       000010000D    141
     508       0       0       1       1                               0D    142
     510     110       0       0       0       0       0       000010000D    143
     510       0    -209       1       1                               0D    144
     116     111       0       0       0       0       0       000010000D    145
     116       0       0       1       0                               0D    146
     123     112       0       0       0       0       0       000010200D    147
     123       0       0       1       0                               0D    148
     198     113       0       0       0       0       0       000010000D    149
     198       0       0       1       1                               0D    150
     123     114       0       0       0       0       0       000010200D    151
     123       0       0       1       0                               0D    152
     508     115       0       0       0       0       0       000010000D    153
     508       0       0       1       1                               0D    154
     100     116       0       0       0       0      73       000010000D    155
     100       0       0       2       0                               0D    156
     508     118       0       0       0       0       0       000010000D    157
     508       0       0       1       1                               0D    158
     510     119       0       0       0       0       0       000010000D    159
     510       0    -209       1       1                               0D    160
     116     120       0       0       0       0       0       000010000D    161
     116       0       0       1       0                               0D    162
     123     121       0       0       0       0       0       000010200D    163
     123       0       0       1       0                               0D    164
     192     122       0       0       0       0       0       000010000D    165
     192       0       0       1       1                               0D    166
     123     123       0       0       0       0       0       000010200D    167
     123       0       0       1       0                               0D    168
     508     124       0       0       0       0       0       000010000D    169
     508       0       0       1       1                               0D    170
     100     125       0       0       0       0      89       000010000D    171
     100       0       0       2       0                               0D    172
     508     127       0       0       0       0       0       000010000D    173
     508       0       0       1       1                               0D    174
     510     128       0       0       0       0       0       000010000D    175
     510       0    -209       1       1                               0D    176
     116     129       0       0       0       0       0       000010000D    177
     116       0       0       1       0                               0D    178
     123     130       0       0       0       0       0       000010200D    179
     123       0       0       1       0                               0D    180
     190     131       0       0       0       0       0       000010000D    181
     190       0       0       1       1                               0D    182
     123     132       0       0       0       0       0       000010200D    183
     123       0       0       1       0                               0D    184
     508     133       0       0       0       0       0       000010000D    185
     508       0       0       1       1                               0D    186
     508     134       0       0       0       0       0       000010000D    187
     508       0       0       1       1                               0D    188
     510     135       0       0       0       0       0       000010000D    189
     510       0    -209       1       1                               0D    190
     116     136       0       0       0       0       0       000010000D    191
     116       0       0       1       0                               0D    192
     123     137       0       0       0       0       0       000010200D    193
     123       0       0       1       0                               0D    194
     190     138       0       0       0       0       0       000010000D    195
     190       0       0       1       1                               0D    196
     123     139       0       0       0       0       0       000010200D    197
     123       0       0       1       0                               0D    198
     508     140       0       0       0       0       0       000010000D    199
     508       0       0       1       1                               0D    200
     508     141       0       0       0       0       0       000010000D    201
     508       0       0       1       1                               0D    202
     510     142       0       0       0       0       0       000010000D    203
     510       0    -209       1       1                               0D    204
     514     143       0       0       0       0       0       000010000D    205
     514       0       0       2       1                               0D    206
     186     145       0       0       1       0       0       000000000D    207
     186       0       0       1       0                 Solido1       0D    208
     314     146       0       0       0       0       0       000000000D    209
     314       0       8       1       0                               0D    210
406,2,0,6H000803;                                                      1P      1
120,7,5,0.0D0,6.28318530717959D0;                                      3P      2
110,-9.5D0,35.852784539445D0,-146.153313953858D0,-9.5D0,               5P      3
8.61916886063946D0,-176.399308350788D0;                                5P      4
110,0.0D0,35.852784539445D0,-146.153313953858D0,0.0D0,                 7P      5
35.1836539330862D0,-146.896458779335D0;                                7P      6
504,12,13,11,1,11,1,19,11,2,11,2,37,11,3,11,3,53,11,4,11,4,71,         9P      7
11,5,11,5,87,11,6,11,6,103,11,7,11,7,107,11,8,11,8,123,11,9,11,        9P      8
9,139,11,10,11,10,155,11,11,11,11,171,11,12,11,12;                     9P      9
502,12,9.5D0,9.85706048240338D0,-175.024490423655D0,9.5D0,            11P     10
34.6148929176811D0,-147.528131880991D0,9.5D0,35.9749383568642D0,      11P     11
-95.5900919846432D0,9.5D0,8.91416154172117D0,                         11P     12
-62.1728156419935D0,9.5D0,5.60430655769061D-15,-37.0D0,9.5D0,         11P     13
1.16341445918999D-15,0.0D0,11.0D0,9.85706048240338D0,                 11P     14
-175.024490423655D0,11.0D0,34.6148929176811D0,                        11P     15
-147.528131880991D0,11.0D0,35.9749383568642D0,                        11P     16
-95.5900919846432D0,11.0D0,8.91416154172117D0,                        11P     17
-62.1728156419935D0,11.0D0,5.78800357756272D-15,-37.0D0,11.0D0,       11P     18
1.34711147906209D-15,0.0D0;                                           11P     19
100,0.0D0,0.0D0,0.0D0,-9.5D0,-4.1025060476566D-14,-9.5D0,             13P     20
-4.1025060476566D-14;                                                 13P     21
124,-1.0D0,0.0D0,0.0D0,0.0D0,0.0D0,-.743144825477394D0,               15P     22
.669130606358858D0,9.85706048240336D0,0.0D0,.669130606358858D0,       15P     23
.743144825477394D0,-175.024490423655D0;                               15P     24
508,1,0,9,1,0,0;                                                      17P     25
100,0.0D0,0.0D0,0.0D0,-9.5D0,-2.83685179958392D-14,-9.5D0,            19P     26
-2.83685179958392D-14;                                                19P     27
124,-1.0D0,0.0D0,0.0D0,0.0D0,0.0D0,-.743144825477394D0,               21P     28
.669130606358858D0,34.6148929176811D0,0.0D0,.669130606358858D0,       21P     29
.743144825477394D0,-147.528131880991D0;                               21P     30
508,1,0,9,2,1,0;                                                      23P     31
510,3,2,1,17,23;                                                      25P     32
120,33,29,0.0D0,6.28318530717959D0;                                   27P     33
100,0.0D0,0.0D0,0.0D0,9.5D0,0.0D0,9.5D0,0.0D0;                        29P     34
124,0.0D0,1.0D0,0.0D0,-5.81707229594993D-16,0.0D0,0.0D0,1.0D0,        31P     35
4.88909989858533D0,1.0D0,0.0D0,0.0D0,-80.7629076266367D0;             31P     36
110,0.0D0,4.88909989858533D0,-120.762907626637D0,1.0D0,               33P     37
4.88909989858533D0,-120.762907626637D0;                               33P     38
508,1,0,9,2,0,0;                                                      35P     39
100,0.0D0,0.0D0,0.0D0,-9.5D0,-2.41496705022636D-14,-9.5D0,            37P     40
-2.41496705022636D-14;                                                37P     41
124,-1.0D0,0.0D0,0.0D0,0.0D0,0.0D0,-.777145961456971D0,               39P     42
-.629320391049837D0,35.9749383568642D0,0.0D0,                         39P     43
-.629320391049837D0,.777145961456971D0,-95.5900919846432D0;           39P     44
508,1,0,9,3,1,0;                                                      41P     45
510,27,2,1,35,41;                                                     43P     46
120,49,47,0.0D0,6.28318530717959D0;                                   45P     47
110,-9.5D0,7.56112270096399D0,-60.501951824861D0,-9.5D0,              47P     48
37.3279771976214D0,-97.2609558017758D0;                               47P     49
110,0.0D0,7.56112270096399D0,-60.501951824861D0,0.0D0,                49P     50
8.19044309201383D0,-61.279097786318D0;                                49P     51
508,1,0,9,3,0,0;                                                      51P     52
100,0.0D0,0.0D0,0.0D0,-9.5D0,-2.41496705022636D-14,-9.5D0,            53P     53
-2.41496705022636D-14;                                                53P     54
124,-1.0D0,0.0D0,0.0D0,0.0D0,0.0D0,-.777145961456971D0,               55P     55
-.629320391049837D0,8.91416154172115D0,0.0D0,                         55P     56
-.629320391049837D0,.777145961456971D0,-62.1728156419935D0;           55P     57
508,1,0,9,4,1,0;                                                      57P     58
510,45,2,1,51,57;                                                     59P     59
120,67,63,0.0D0,6.28318530717959D0;                                   61P     60
100,0.0D0,0.0D0,0.0D0,9.5D0,0.0D0,9.5D0,0.0D0;                        63P     61
124,0.0D0,-1.0D0,0.0D0,5.81707229594993D-16,0.0D0,0.0D0,1.0D0,        65P     62
40.0D0,-1.0D0,0.0D0,0.0D0,-77.0D0;                                    65P     63
110,0.0D0,40.0D0,-37.0D0,-1.0D0,40.0D0,-37.0D0;                       67P     64
508,1,0,9,4,0,0;                                                      69P     65
100,0.0D0,0.0D0,0.0D0,-9.5D0,1.16341445918999D-15,-9.5D0,             71P     66
1.16341445918999D-15;                                                 71P     67
124,-1.0D0,0.0D0,0.0D0,0.0D0,0.0D0,-1.0D0,0.0D0,                      73P     68
4.44089209850063D-15,0.0D0,0.0D0,1.0D0,-37.0D0;                       73P     69
508,1,0,9,5,1,0;                                                      75P     70
510,61,2,1,69,75;                                                     77P     71
120,83,81,0.0D0,6.28318530717959D0;                                   79P     72
110,-9.5D0,0.0D0,1.85D0,-9.5D0,4.88498130835069D-15,-38.85D0;         81P     73
110,0.0D0,0.0D0,1.85D0,0.0D0,0.0D0,.85D0;                             83P     74
508,1,0,9,5,0,0;                                                      85P     75
100,0.0D0,0.0D0,0.0D0,-9.5D0,1.16341445918999D-15,-9.5D0,             87P     76
1.16341445918999D-15;                                                 87P     77
124,-1.0D0,0.0D0,0.0D0,0.0D0,0.0D0,1.0D0,0.0D0,0.0D0,0.0D0,           89P     78
0.0D0,-1.0D0,0.0D0;                                                   89P     79
508,1,0,9,6,0,0;                                                      91P     80
510,79,2,1,85,91;                                                     93P     81
116,0.0D0,34.6148929176811D0,-147.528131880991D0,0;                   95P     82
123,0.0D0,-.669130606358858D0,-.743144825477394D0;                    97P     83
192,95,97,11.0D0,101;                                                 99P     84
123,-1.0D0,0.0D0,0.0D0;                                              101P     85
100,0.0D0,0.0D0,0.0D0,-11.0D0,-6.70426268378476D-14,-11.0D0,         103P     86
-6.70426268378476D-14;                                               103P     87
508,1,0,9,7,1,0;                                                     105P     88
100,0.0D0,0.0D0,0.0D0,-11.0D0,-2.79627763710421D-14,-11.0D0,         107P     89
-2.79627763710421D-14;                                               107P     90
508,1,0,9,8,0,0;                                                     109P     91
510,99,2,1,105,109;                                                  111P     92
116,0.0D0,4.88909989858533D0,-120.762907626637D0,0;                  113P     93
123,-1.0D0,0.0D0,0.0D0;                                              115P     94
198,113,115,40.0D0,11.0D0,119;                                       117P     95
123,0.0D0,0.0D0,1.0D0;                                               119P     96
508,1,0,9,8,1,0;                                                     121P     97
100,0.0D0,0.0D0,0.0D0,-11.0D0,-2.30777950626914D-14,-11.0D0,         123P     98
-2.30777950626914D-14;                                               123P     99
508,1,0,9,9,0,0;                                                     125P    100
510,117,2,1,121,125;                                                 127P    101
116,0.0D0,8.91416154172115D0,-62.1728156419935D0,0;                  129P    102
123,0.0D0,.629320391049838D0,-.777145961456971D0;                    131P    103
192,129,131,11.0D0,135;                                              133P    104
123,-1.0D0,0.0D0,0.0D0;                                              135P    105
508,1,0,9,9,1,0;                                                     137P    106
100,0.0D0,0.0D0,0.0D0,-11.0D0,-2.30777950626914D-14,-11.0D0,         139P    107
-2.30777950626914D-14;                                               139P    108
508,1,0,9,10,0,0;                                                    141P    109
510,133,2,1,137,141;                                                 143P    110
116,0.0D0,40.0D0,-37.0D0,0;                                          145P    111
123,1.0D0,0.0D0,0.0D0;                                               147P    112
198,145,147,40.0D0,11.0D0,151;                                       149P    113
123,0.0D0,0.0D0,-1.0D0;                                              151P    114
508,1,0,9,10,1,0;                                                    153P    115
100,0.0D0,0.0D0,0.0D0,-11.0D0,1.34711147906209D-15,-11.0D0,          155P    116
1.34711147906209D-15;                                                155P    117
508,1,0,9,11,0,0;                                                    157P    118
510,149,2,1,153,157;                                                 159P    119
116,0.0D0,0.0D0,0.0D0,0;                                             161P    120
123,0.0D0,1.20024110770287D-16,-1.0D0;                               163P    121
192,161,163,11.0D0,167;                                              165P    122
123,-1.0D0,0.0D0,0.0D0;                                              167P    123
508,1,0,9,11,1,0;                                                    169P    124
100,0.0D0,0.0D0,0.0D0,-11.0D0,1.34711147906209D-15,-11.0D0,          171P    125
1.34711147906209D-15;                                                171P    126
508,1,0,9,12,1,0;                                                    173P    127
510,165,2,1,169,173;                                                 175P    128
116,0.0D0,0.0D0,0.0D0,0;                                             177P    129
123,0.0D0,0.0D0,1.0D0;                                               179P    130
190,177,179,183;                                                     181P    131
123,1.0D0,0.0D0,0.0D0;                                               183P    132
508,1,0,9,12,0,0;                                                    185P    133
508,1,0,9,6,1,0;                                                     187P    134
510,181,2,1,185,187;                                                 189P    135
116,0.0D0,9.85706048240336D0,-175.024490423655D0,0;                  191P    136
123,0.0D0,-.669130606358858D0,-.743144825477394D0;                   193P    137
190,191,193,197;                                                     195P    138
123,-1.0D0,0.0D0,0.0D0;                                              197P    139
508,1,0,9,7,0,0;                                                     199P    140
508,1,0,9,1,1,0;                                                     201P    141
510,195,2,1,199,201;                                                 203P    142
514,12,25,1,43,1,59,1,77,1,93,1,111,1,127,1,143,1,159,1,175,1,       205P    143
189,1,203,1;                                                         205P    144
186,205,1,0;                                                         207P    145
314,63.9216005802155D0,63.9216005802155D0,68.6275005340576D0,;       209P    146
S      1G      4D    210P    146                                        T      1
